Oops, an error
Loading. Please wait.

Better Life Tab

version 3
version 3

Whole song

Interactive

2,857 views 3 this week
no commentswrite comment
1 2 3 4 5
1 last vote to show rating
add to favorites
launch autoscroll
font size
0
reset
how to read this tab
guitar tuner
Autoscroll
slow
fast
+/-
esc
set tempo
stop
Help us to improve Ultimate-Guitar.com Take our survey!
×
Author
Difficulty
novice
Intro:

------------------------------------------------------------------------------|
------------------------------------------------------------------------------|
------------------------------------------------------------------------------|
------------------------------------------------------------------------------|
-2-4--4-4-4-2-4--4-4-4-7-4--4-4-4-2-4--4-4-4-9-4--4-4-4-2-4--4-4-4-7-4--4-4---|
-0-2--2-2-2-0-2--2-2-2-5-2--2-2-2-0-2--2-2-2-7-2--2-2-2-0-2--2-2-2-5-2--2-2---|


------------------------------------------------------------------------------|
------------------------------------------------------------------------------|
------------------------------------------------------------------------------|
------------------------------------------------------------------------------|
-4-2-4--4-4-------------------------------------------------------------------|
-2-0-2--2-2-------------------------------------------------------------------|

Verse:

------------------------------------------------------------------------------|
------------------------------------------------------------------------------|
-------------2---------------------------2------------------------------------|
-2h4-4-2-4p2---2h4-4-2-4h2---2h4-4-2-4p2---2h4-4-2-9p7------------------------|
---------------------------2--------------------------------------------------|
------------------------------------------------------------------------------|

(2nd guitar comes in, it starts on the previous line in the next verse)

------------------------------------------------------------------------------|
------------------------------------------------------------------------------|
-------------2---------------------------2------------------------------------|
-2h4-4-2-4p2---2h4-4-2-4h2---2h4-4-2-4p2---2h4-4---2-4------------------------|
---------------------------2---------------------2----------------------------|
------------------------------------------------------------------------------|


------------------------------------------------------------------------------|
------------------------------------------------------------------------------|
-------------2---------------------------2------------------------------------|
-2h4-4-2-4p2---2h4-4-2-4h2---2h4-4-2-4p2---2h4-4-2-9p7------------------------|
---------------------------2--------------------------------------------------|
------------------------------------------------------------------------------|


------------------------------------------------------------------------------|
------------------------------------------------------------------------------|
-------------2---------------------------2------------------------------------|
-2h4-4-2-4p2---2h4-4-2-4h2---2h4-4-2-4p2---2h4-4---2-4------------------------|
---------------------------2---------------------2----------------------------|
------------------------------------------------------------------------------|

Chorus:

------------------------------------------------------------------------------|
------------------------------------------------------------------------------|
------------------------------------------------------------------------------|
-4--5--7--5--4--7-7-7-7--9-9-9-9----------------------------------------------|
-4--5--7--5--4--7-7-7-7--9-9-9-9----------------------------------------------|
-2--3--5--3--2--5-5-5-5--7-7-7-7----------------------------------------------|

Bridge:

------------------------------------------------------------------------------|
------------------------------------------------------------------------------|
------------------------------------------------------------------------------|
-------------5---------------------------5------------------------------------|
-5h7-7-5-7p5---5h7-7-5-7h5---5h7-7-5-7p5---5h7-7-5-12h10----------------------|
---------------------------5--------------------------------------------------|

I'm not sure about the ending on the following line:

------------------------------------------------------------------------------|
------------------------------------------------------------------------------|
------------------------------------------------------------------------------|
-------------5---------------------------5------------------------------------|
-5h7-7-5-7p5---5h7-7-5-7h5---5h7-7-5-7p5---5h7-7-----7------------------------|
---------------------------5---------------------5-7--------------------------|

Play this to backup the solo and right before the solo starts, there is some
changing in the order of the chords near the end, but I'm too lazy to figure
it out, I know, I should have, but I tabbed two lengthy songs today, so I'm
pooped.  Sorry.  Play this 3x.

------------------------------------------------------------------------------|
------------------------------------------------------------------------------|
------------------------------------------------------------------------------|
------------------------------------------------------------------------------|
-2--4--5--7--9--10------------------------------------------------------------|
-0--2--3--5--7--8-------------------------------------------------------------|

Solo:

I can't really get the solo, but I gave it my best shot. Sorry guys.

------------------------------------------------------------------------------|
-b9-9---------------10--12-10-------------------------------------------------|
-b8---14-----9-11-------------12-11-9-7-9-------------------------------------|
------------------------------------------------------------------------------|
------------------------------------------------------------------------------|
------------------------------------------------------------------------------|

Then play the bridge part which sounds like the verse, then switch back to the
regular verse.  Then do the chorus over and over.  Finally end on that cool
intro riff.

I don't feel like this is one of my better tabbed out songs, so please email
me with comments and suggestions.
Suggest correction
Give kudos to tab author, rate the tab!
1 2 3 4 5
comments
print report bad tab
guest
You may want to rate the tab now too:
select rating
Wanna post a correction for this tab? Suggest correction