Oops, an error
Loading. Please wait.

By My Side Tab

version 1
version 1

Interactive

8,247 views 9 this week
1 commentread comment
1 2 3 4 5
worth learning
x 11
add to favorites
launch autoscroll
font size
0
reset
how to read this tab
guitar tuner
Autoscroll
slow
fast
+/-
esc
set tempo
stop
Help us to improve Ultimate-Guitar.com Take our survey!
×
-------------------------------------------------------------------------------
                             BY MY SIDE - 3 Doors Down
-------------------------------------------------------------------------------
Tabbed by:Matt Carter
Email:DSCguitar@aol.com

Tuning:Standard

This is actually played by two guitars, but, it's just as easy to play
with just one.

Thingy 1 (I can't remember what all the terms are so they'll just be
thingy 1 etc.)
e|---------------------------------------------------------------------------|
B|---------------------------------------------------------------------------|
G|---------------------------------------------------------------------------|
D|-5-5-----------8-8-----------5-5-----------8-8-----------------------------|
A|-5-5-6-5-5h6p5-8-8-8-5-5h8p5-5-5-6-5-5h6p5-8-8-8-10------------------------|
E|-3-3-----------6-6-----------3-3-----------6-6-----------------------------|

e|---------------------------------------------------------------------------|
B|---------------------------------------------------------------------------|
G|---------------------------------------------------------------------------|
D|-5-5-----------8-8-----------5-5-----------8-8----8------------------------|
A|-5-5-6-5-5h6p5-8-8-8-5-5h8p5-5-5-6-5-5h6p5-8-8----8-x11--------------------|
E|-3-3-----------6-6-----------3-3-----------6-6----6------------------------|

Thingy 2
e|---------------------------------------------------------------------------|
B|---------------------------------------------------------------------------|
G|---------8-8-8-0---------10-10-10-0----------------------------------------|
D|-5-5-5-0-8-8-8-0-8-8-8-0-10-10-10-0----------------------------------------|
A|-5-5-5-0-6-6-6-0-8-8-8-0-8--8--8--0----------------------------------------|
E|-3-3-3-0---------6-6-6-0---------------------------------------------------|

Thingy 3
e|---------------------------------------------------------------------------|
B|---------------------------------------------------------------------------|
G|---------------------------------------------------------------------------|
D|-----------3-------------------------3-------------------------------------|
A|-5-5---3-5---6-5-3---3-5---5-5---3-5---6-5-3---3---------------------------|
E|-3-3-6-------------6-------3-3-6-------------6---3-------------------------|
       (pm----------------)      (pm----------------)

Solo Thingy
e|---------------------------------------------------------------------------|
B|---------------------------------------------------------------------------|
G|-6-(bend-slowly-up)-6--------------5---------------------------------------|
D|----------------------6~-6-8-6-9-6---6--10-b11-9-11-11-9-------------------|
A|---------------------------------------------------------11-10-9~-7-9~-----|
E|---------------------------------------------------------------------------|
                                                      (pm-------)
That's it...too lazy...learn the rest of the solo yourself

here's the structure:
-Thingy 1 (once)
-Thingy 2 (4 times)
-Thingy 2 (4 times palm muted)
-Thingy 1 (once)
-Thingy 3 (twice)
-Thingy 2 (4 times palm muted)
-Thingy 1 (once)
-Solo Thingy (w/ Thingy 2 playing under it palm muted)
-Thingy 3 (twice)
-Thingy 2 (8 times)
-Thingy 1 (once)
-Thingy 2 (4 times)

| /  slide up
| \  slide down
| h  hammer-on
| p  pull-off
| ~  vibrato
| +  harmonic
| x  Mute note
| b  bend
============================================================================
Suggest correction
What's this?
You can suggest a correction to this tab. Community and Mods will review your correction and vote to approve or reject it.
comments
print report bad tab
1 comment total.
0 reply
CheezmoFeez 21 wrote on February 1 2003, 12:00 am

GREAT TAB!

guest
You may want to rate the tab now too:
select rating
Please do not post tabs as comments. Select "correction" instead!