Oops, an error
Loading. Please wait.

By My Side Tab

version 5
version 5

Interactive

2,347 views 1 this week
4 commentsread comments
1 2 3 4 5
1 last vote to show rating
add to favorites
launch autoscroll
font size
0
reset
how to read this tab
guitar tuner
Autoscroll
slow
fast
+/-
esc
set tempo
stop
Help us to improve Ultimate-Guitar.com Take our survey!
×
Author
  OK, this tab is pretty much 150% correct cause ive been playing it for a few years now 
know how it goes.  Have fun playing this song cause it rocks and I hope these tabs help 
play it right. (I've heard it played incorrectly soo many times)
  I split up guitar 1 and guitar 2's parts, so its easier for each to read and print... 
line up perfectly (ive listened to the song and read them at the same time for both)

                    GUITAR 1 TAB

Standard Tuning

B = full bend
b = half bend
h = hammer on
> = hold note for longer duration
. = palm mute
* = pinch harmonics (some amps need to be on full distortion)
p = pull off
~ = vibrato

                       GUITAR 1

------------------------------------------------------|
------------------------------------------------------|
----------------3-3-------------------------3-3----0--|
--5-5-----------3-3-----------5-5-----------3-3--3----|
--5-5-----------1-1-----------5-5-----------1-1-------|
--3-3-------------------------3-3---------------------|


---------------------------------------------------------|
---------------------------------------------------------|
----------------3-3-------------------------3-3-3-3-3-3--|
--5-5-----------3-3-----------5-5-----------3-3-3-3-3-3--|
--5-5-----------1-1-----------5-5-----------1-1-1-1-1-1--|
--3-3-------------------------3-3------------------------|


-------------------------------------------|
-------------------------------------------|
---------8-8-8-8-8---------10-10-10-10-10--|  4x
--5-5-5--8-8-8-8-8--8-8-8--10-10-10-10-10--|
--5-5-5--6-6-6-6-6--8-8-8---8--8--8--8--8--|
--3-3-3-------------6-6-6------------------|

            (palm muted)
-------------------------------------------|
-------------------------------------------|
---------8-8-8-8-8---------10-10-10-10-10--|  4x
--5-5-5--8-8-8-8-8--8-8-8--10-10-10-10-10--|
--5-5-5--6-6-6-6-6--8-8-8---8--8--8--8--8--|
--3-3-3-------------6-6-6------------------|
  . . .  . . . . .  . . .   .  .  .  .  .

------------------------------------------------------|
------------------------------------------------------|
----------------3-3-------------------------3-3----0--|
--5-5-----------3-3-----------5-5-----------3-3--3----|
--5-5-----------1-1-----------5-5-----------1-1-------|
--3-3-------------------------3-3---------------------|

----------------------------------------------------|
----------------------------------------------------|
----------------3-3-------------------------3-3-----|
--5-5-----------3-3-----------5-5-----------3-3--3--|
--5-5-----------1-1-----------5-5-----------1-1-----|
--3-3-------------------------3-3-------------------|


------------------------------------------------------|
------------------------------------------------------|
------------------------------------------------------|
--5-5-----------------------5-5-----------------------|
--5-5-----------------------5-5-----------------------|
--3-3-----------------------3-3-----------------------|


--------------------------------------------------------|
--------------------------------------------------------|
--------------------------------------------------------|
--5-5-----------------------5-5--------------------5-5--|
--5-5-----------------------5-5--------------------5-5--|
--3-3-----------------------3-3--------------------3-3--|

               (palm muted)
-------------------------------------------|
-------------------------------------------|
---------8-8-8-8-8---------10-10-10-10-10--|  4x
--5-5-5--8-8-8-8-8--8-8-8--10-10-10-10-10--|
--5-5-5--6-6-6-6-6--8-8-8---8--8--8--8--8--|
--3-3-3-------------6-6-6------------------|
  . . .  . . . . .  . . .   .  .  .  .  .

------------------------------------------------------|
------------------------------------------------------|
----------------3-3-------------------------3-3----0--|
--5-5-----------3-3-----------5-5-----------3-3--3----|
--5-5-----------1-1-----------5-5-----------1-1-------|
--3-3-------------------------3-3---------------------|


------------------------------------------------------|
------------------------------------------------------|
----------------3-3-------------------------3-3----0--|
--5-5-----------3-3-----------5-5-----------3-3--3----|
--5-5-----------1-1-----------5-5-----------1-1-------|
--3-3-------------------------3-3---------------------|

               [SOLO BACKING]
-------------------------------------------|
-------------------------------------------|
---------8-8-8-8-8---------10-10-10-10-10--|  7x
--5-5-5--8-8-8-8-8--8-8-8--10-10-10-10-10--|
--5-5-5--6-6-6-6-6--8-8-8---8--8--8--8--8--|
--3-3-3-------------6-6-6------------------|


-------------------------------------------|
-------------------------------------------|
---------8-8-8-8-8---------10-10-10--------|
--5-5-5--8-8-8-8-8--8-8-8--10-10-10--------|
--5-5-5--6-6-6-6-6--8-8-8---8--8--8--------|
--3-3-3-------------6-6-6------------------|

            ^^^[SOLO BACKING]^^^

-------------------------------------------------|
-------------------------------------------------|
-------------------------------------------------|
--5-5-----------------------5-5------------------|
--5-5-----------------------5-5------------------|
--3-3-----------------------3-3------------------|


------------------------------------------------------|
------------------------------------------------------|
------------------------------------------------------|
--5-5-----------------------5-5--------------------5--|
--5-5-----------------------5-5--------------------5--|
--3-3-----------------------3-3--------------------3--|


-------------------------------------------|
-------------------------------------------|
---------8-8-8-8-8---------10-10-10-10-10--|  8x
--5-5-5--8-8-8-8-8--8-8-8--10-10-10-10-10--|
--5-5-5--6-6-6-6-6--8-8-8---8--8--8--8--8--|
--3-3-3-------------6-6-6------------------|


------------------------------------------------------|
------------------------------------------------------|
----------------3-3-------------------------3-3----0--|
--5-5-----------3-3-----------5-5-----------3-3--3----|
--5-5-----------1-1-----------5-5-----------1-1-------|
--3-3-------------------------3-3---------------------|


---------------------------------------------------------|
---------------------------------------------------------|
----------------3-3-------------------------3-3-3-3-3-3--|
--5-5-----------3-3-----------5-5-----------3-3-3-3-3-3--|
--5-5-----------1-1-----------5-5-----------1-1-1-1-1-1--|
--3-3-------------------------3-3------------------------|


-------------------------------------------|
-------------------------------------------|
---------8-8-8-8-8---------10-10-10-10-10--|  4x
--5-5-5--8-8-8-8-8--8-8-8--10-10-10-10-10--|
--5-5-5--6-6-6-6-6--8-8-8---8--8--8--8--8--|
--3-3-3-------------6-6-6------------------|


_____________________________________________________________________________


                    GUITAR 2 TAB

Standard Tuning

B = full bend
b = half bend
h = hammer on
> = hold note for longer duration
. = palm mute
* = pinch harmonics (some amps need to be on full distortion)
p = pull off
~ = vibrato

                       GUITAR 2

------------------------------------------------------|
------------------------------------------------------|
----------------3-3-------------------------3-3----0--|
--5-5-1-0-0h1p0-3-3-3-0-0h3p0-5-5-1-0-0h1p0-3-3--3----|
--5-5-----------1-1-----------5-5-----------1-1-------|
--3-3-------------------------3-3---------------------|


---------------------------------------------------------|
---------------------------------------------------------|
----------------3-3-------------------------3-3-3-3-3-3--|
--5-5-1-0-0h1p0-3-3-3-0-0h3p0-5-5-1-0-0h1p0-3-3-3-3-3-3--|
--5-5-----------1-1-----------5-5-----------1-1-1-1-1-1--|
--3-3-------------------------3-3------------------------|


-------------------------------------------|
-------------------------------------------|
---------8-8-8-8-8---------10-10-10-10-10--|  4x
--5-5-5--8-8-8-8-8--8-8-8--10-10-10-10-10--|
--5-5-5--6-6-6-6-6--8-8-8---8--8--8--8--8--|
--3-3-3-------------6-6-6------------------|

            (palm muted)
-------------------------------------------|
-------------------------------------------|
---------8-8-8-8-8---------10-10-10-10-10--|  4x
--5-5-5--8-8-8-8-8--8-8-8--10-10-10-10-10--|
--5-5-5--6-6-6-6-6--8-8-8---8--8--8--8--8--|
--3-3-3-------------6-6-6------------------|
  . . .  . . . . .  . . .   .  .  .  .  .

------------------------------------------------------|
------------------------------------------------------|
----------------3-3-------------------------3-3----0--|
--5-5-1-0-0h1p0-3-3-3-0-0h3p0-5-5-1-0-0h1p0-3-3--3----|
--5-5-----------1-1-----------5-5-----------1-1-------|
--3-3-------------------------3-3---------------------|

----------------------------------------------------|
----------------------------------------------------|
----------------3-3-------------------------3-3-----|
--5-5-1-0-0h1p0-3-3-3-0-0h3p0-5-5-1-0-0h1p0-3-3--3--|
--5-5-----------1-1-----------5-5-----------1-1-----|
--3-3-------------------------3-3-------------------|


------------------------------------------------------|
------------------------------------------------------|
------------------------------------------------------|
--5-5--------3--------------5-5--------3--------------|
--5-5----3-5---6-5-3---3-5--5-5----3-5---6-5-3---3----|
--3-3--6-------------6------3-3--6-------------6---3--|


--------------------------------------------------------|
--------------------------------------------------------|
--------------------------------------------------------|
--5-5--------3--------------5-5--------3-------------5--|
--5-5----3-5---6-5-3---3-5--5-5----3-5---6-5-3---3---5--|
--3-3--6-------------6------3-3--6-------------6---3-3--|

   (majority is palm muted)
-------------------------------------------|
-------------------------------------------|
---------8-8-8-8-8---------10-10-10-10-10--|
--5-5-5--8-8-8-8-8--8-8-8--10-10-10-10-10--|
--5-5-5--6-6-6-6-6--8-8-8---8--8--8--8--8--|
--3-3-3-------------6-6-6------------------|
    . .  . . . . .  . . .   .  .  .  .  .

-------------------------------------------|
-------------------------------------------|
---------8-8-8-8-8---------10-10-10-10-10--|  3x
--5-5-5--8-8-8-8-8--8-8-8--10-10-10-10-10--|
--5-5-5--6-6-6-6-6--8-8-8---8--8--8--8--8--|
--3-3-3-------------6-6-6------------------|
  . . .  . . . . .  . . .   .  .  .  .  .

------------------------------------------------------|
------------------------------------------------------|
----------------3-3-------------------------3-3----0--|
--5-5-1-0-0h1p0-3-3-3-0-0h3p0-5-5-1-0-0h1p0-3-3--3----|
--5-5-----------1-1-----------5-5-----------1-1-------|
--3-3-------------------------3-3---------------------|


------------------------------------------------------|
------------------------------------------------------|
----------------3-3-------------------------3-3----0--|
--5-5-1-0-0h1p0-3-3-3-0-0h3p0-5-5-1-0-0h1p0-3-3--3----|
--5-5-----------1-1-----------5-5-----------1-1-------|
--3-3-------------------------3-3---------------------|

                   [SOLO]
-----------------------------------------------|
-----------------------------------------------|
--5B--3----------3-5-3-5b--5b------------------|
--------5--5-3-5---------------5p3---3h5-------|
-----------------------------------5-----------|
-----------------------------------------------|
        ~        *   * *   *
-----------------------------------------------|
-----------------------------------------------|
------------3B---3-5p3-------------------------|
------5-3-5----5-------5--5-3-5----------------|
--555------------------------------------------|
-----------------------------------------------|
   .

-----------------------------------------------|
-----------------------------------------------|
------5/6-6/8-8-8-8------5/6-6/8-8-8-8---------|
--5/7----------------5/7-----------------------|
-----------------------------------------------|
-----------------------------------------------|


-----------------------------------------------|
--8p6---8p6---8p6---8p6---8p6---8p6---8p6---8--|
-----7-----7-----7-----7-----7-----7-----7-----|
-----------------------------------------------|
-----------------------------------------------|
-----------------------------------------------|


-----------------------------------------------|
-----------------------------------------------|
--8p6--6---------------------------------------|
-----7---7-6------8------0----------5----------|
-------------8h10---10-8---3B-------5----------|
------------------------------6-3-3-3----------|
                                  .
                 ^^^[SOLO]^^^

-------------------------------------------------|
-------------------------------------------------|
-------------------------------------------------|
--------3--------------5-5--------3--------------|
----3-5---6-5-3---3-5--5-5----3-5---6-5-3---3----|
--6-------------6------3-3--6-------------6---3--|


--------------------------------------------------------|
--------------------------------------------------------|
--------------------------------------------------------|
--5-5--------3--------------5-5--------3-------------5--|
--5-5----3-5---6-5-3---3-5--5-5----3-5---6-5-3---3---5--|
--3-3--6-------------6------3-3--6-------------6---3-3--|


-------------------------------------------|
-------------------------------------------|
---------8-8-8-8-8---------10-10-10-10-10--|  4x
--5-5-5--8-8-8-8-8--8-8-8--10-10-10-10-10--|
--5-5-5--6-6-6-6-6--8-8-8---8--8--8--8--8--|
--3-3-3-------------6-6-6------------------|


--10/11-------------13h15-13h15-13h15-13h15-13h15-13h15--|
-----------11b-10----------------------------------------|
---------------------------------------------------------|
---------------------------------------------------------|
---------------------------------------------------------|
---------------------------------------------------------|
     ~~        ~~

--13h15-13h15-13h15-13h15-13h15-13h15-13h15-13h15-13h15--|
---------------------------------------------------------|
---------------------------------------------------------|
---------------------------------------------------------|
---------------------------------------------------------|
---------------------------------------------------------|


--13h15---------------------------------------------------|
--------11h13-11h13-11h13-11h13-11h13-11h13-11-13b-11-----|
------------------------------------------------------12--|
----------------------------------------------------------|
----------------------------------------------------------|
----------------------------------------------------------|
                                                      ~~

------------------------------------------------------|
------------------------------------------------------|
----------------3-3-------------------------3-3----0--|
--5-5-1-0-0h1p0-3-3-3-0-0h3p0-5-5-1-0-0h1p0-3-3--3----|
--5-5-----------1-1-----------5-5-----------1-1-------|
--3-3-------------------------3-3---------------------|


---------------------------------------------------------|
---------------------------------------------------------|
----------------3-3-------------------------3-3-3-3-3-3--|
--5-5-1-0-0h1p0-3-3-3-0-0h3p0-5-5-1-0-0h1p0-3-3-3-3-3-3--|
--5-5-----------1-1-----------5-5-----------1-1-1-1-1-1--|
--3-3-------------------------3-3------------------------|


---------------------------------------------------------|
---------------------------------------------------------|
---------------------------------------------------------|  (runs for two of guitar 1's measures)
--5>>>>>----5-5-5-5-5-5-5-5-5-5-5-5-5-5-5-5-5-5-5-5-5-5--|
---------------------------------------------------------|
---------------------------------------------------------|


---------------------------------------------------------|
---------------------------------------------------------|
---------------------------------------------------------|
---------------------------------------------------------|  (runs for the last two 
of the song)
--33-3h5>>--3--3-3--3-3-3--3>>>>--333333-3h5>>>>>>>>>>>--|
---------------------------------------------------------|
---------------------------------------------------------|
  ..                       *

Enjoy!
Suggest correction
Give kudos to tab author, rate the tab!
1 2 3 4 5
comments
print report bad tab
4 comments total. Showing first comments.
0 reply
xan17 31 Nov 01, 2006 07:17 PM

nice Josh 1000000 / 10

0 reply
Barringer 30 Nov 01, 2006 07:33 PM

Hey guys just noticed one minor error while going over the solo part:

-----------------------------------------------|
-----------------------------------------------|
------5/6-6/8-8-8-8------5/6-6/8-8-8-8---------|
--5/7----------------5/7-----------------------|
-----------------------------------------------|
-----------------------------------------------|
SHOULD BE:
-----------------------------------------------|
------5/6-6/8-8-8-8------5/6-6/8-8-8-8---------|
--5/7----------------5/7-----------------------|
-----------------------------------------------|
-----------------------------------------------|
-----------------------------------------------|

0 reply
xan17 31 Nov 01, 2006 08:18 PM

there is a part in the solo that i know you did wrong. its just a small error. you out the stuff 1 string down. i believe that is the correct version
-----------------------------------------------|
------5/6-6/8-8-8-8------5/6-6/8-8-8-8---------|
--5/7----------------5/7-----------------------|
-----------------------------------------------|
-----------------------------------------------|
-----------------------------------------------|

guest
You may want to rate the tab now too:
select rating
Wanna post a correction for this tab? Suggest correction