Oops, an error
Loading. Please wait.

Dangerous Game Tab

version 3
version 3

Whole song

1,291 views 1 this week
no commentswrite comment
1 2 3 4 5
please rate
add to favorites
launch autoscroll
font size
0
reset
how to read this tab
guitar tuner
Tab Pro tools
  • play this tab
  • loop segment
  • change instrument
  • show fretboard
  • metronome
×
Best way to learn
"Dangerous Game"
Autoscroll
slow
fast
+/-
esc
set tempo
stop
Contributor
Difficulty
intermediate
3 doors down

Dangerous game

as transcribed by Ken Visger

legend:

/  slide up
\  slide down
h  hammer on
p  pull off
b  bend up
r  release
a.h.   artificial harmonic
p.h.   pinch harmonic
p.m.   palm mute
~   Vibrato

this is a start for me in writing tab,

intro riff with overlayed solo and lots of chorus effect:
---------------------------------0----|
---------------------------1-----3----|
-2-------------------------0-----2----|
-2-------------------------2-----0----|
-0-------------------------3----------|
--------------------------------------|

intro solo: (in progress)
--------------------------------------------------------------5-3---3h5~~~-|
------------------------------------------------------------------5--------|
------------5--------------------------------------------------------------|
-5h7-5----5---8\7---5-5/7--9\7--5~~~----------------------5----------------|
------------------7-----------------------3-3h5-5---3/5-7------------------|
--------------------------------------3h5---------5------------------------|


--8---8-8-10-8--------8-----8------8-------8\7-----------------------|
--8---8-8-10-8----------8-8---8-10---8---8-----10\8-----8/10---10~~--|
-------------------------------------------------------------9-------|
---------------------------------------------------------------------|
---------------------------------------------------------------------|
---------------------------------------------------------------------|


------------------------------------------------------0-----0--------|
-----0--------------1------------0-------1-0-------------------------|
-0h2---0--------0h2----------0h2---0--------------4/5---5/7---7/9~~--|
---------------------------------------------------------------------|
---------------------------------------------------------------------|
---------------------------------------------------------------------|


verse riff:
---------------------------------------------------------------------|
-------0h1-------------------------3---------0h1------------------3--|
-----2-----2-----------------0---2---2-----2-----2----------0---2----|
---2---------2-------------2---0---------2---------2------2---0------|
-0-----------------------3-------------0----------------3------------|
---------------------------------------------------------------------|

first of the heavier riffs (play 3 times)
---------------------------------|
---------------------------------|
-2-2---7---7-----5-5---7---7-----|
-2-2---7---7-----5-5---7---7-----|
-0-0-x-5---5-x-x-3-3-x-5---5---x-|
-----x-------x-x-----x---------x-|


fourth time through only play the first chord shown and hold


---"or will we start this game over again?"---

follow previous with
(play 3 times and follow this with riff a) play these riffs as configured twice through
-------------------------|
-------------------------|
-------------------------|
-7------5----------------|
-7------5--x-x-x-x-x-x-x-|
-5------3--x-x-x-x-x-x-x-|
         (a.h.).........over 5th fret bar

riff a:
------------------------------|
------------------------------|
------------------------------|
-/10-9------------------------|
-------10\--------/3-2--------|
----------------------3/5~~~~-|
comments
We did not receive enough feedback on this tab! Please rate:
print report bad tab
1 2 3 4 5
I want to post or [tab]
guest
You may want to rate the tab now too:
select rating
Please do not post tabs as comments. Select "correction" instead!