Oops, an error
Loading. Please wait.

Days Gone Bye Tab

1,078 views 1 this week
no commentswrite comment
1 2 3 4 5
please rate
add to favorites
launch autoscroll
font size
0
reset
how to read this tab
guitar tuner
Autoscroll
slow
fast
+/-
esc
set tempo
stop
Help us to improve Ultimate-Guitar.com Take our survey!
×
Tuning
E A D G B E
|------------------15------14--------------------------|
G# |-----12----14--------------------------------------|
E  |---------------------------------------------------|
B  |---------------------------------------------------|
F# |---------------------------------------------------|
B  |---------------------------------------------------|

C# |-------------------------------------------------|
G# |-------------------------------------------------|
E  |-------------------------------------------------|
B  |-2-x--2-x--3-x--3--------------------------------|
F# |-0-x--3-x--5-x--2--------------------------------|
B  |-------------------------------------------------|


C# |-------------------------------------------------|
G# |-------------------------------------------------|
E  |--------x-7-x-6----------------------------------|
B  |--4-x-6-x-5-x-4----------------------------------|
F# |--2-x-4------------------------------------------|
B  |-------------------------------------------------|


C# |-------------------------------------------------|
G# |-------------------------------------------------|
E  |-------------------------------------------------|
B  |-------------------------------------------------|
F# |-----5/8-8-8\3-3-3-3-3---------------------------|
B  |-------------------------------------------------|


C# |-------------------------------------------------|
G# |-------------------------------------------------|
E  |-------------------------------------------------|
B  |--------3-3----5-5—7-7---------------------------|
F# |---5-5-------------------------------------------|
B  |-------------------------------------------------|

            |--------------P.M-------------------------|
C# |---------------------------------------------------|
G# |---------------------------------------------------|
E  |---------------------------------------------------|
B  |--10-----0-0-0-0--1-1-1--0-0-0--6-6-6--5-5-5-5-----|
F# |--10-----0-0-0-0--1-1-1--0-0-0--6-6-6--5-5-5-5-----|
B  |--10-----0-0-0-0—-1-1-1--0-0-0--6-6-6--5-5-5-5-----|

             P.M            P.M         P.M
C# |-------------------------------------------------|
G# |-------------------------------------------------|
E  |-------------------------------------------------|
B  |--13p12---------13p12-0-0-0-0-4p3-0-0-0-0-8p7----|
F# |--13p12-0-0-0-0-13p12-0-0-0-0-4p3-0-0-0-0-8p7----|
B  |--13p12-0-0-0-0-13p12-0-0-0-0-4p3-0-0-0-0-8p7----|


C# |----------------------------------|
G# |----------------------------------|
E  |----------------------------------|
B  |--8-------7------0----------------|
F# |--8-------7------0----------------|
B  |--8-------7------0----------------|


C# |---------------------------------------|
G# |---------------------------------------|
E  |--14--12--7------14--12--7--10---------|
B  |---------------------------------------|
F# |--12--10--5------12--10--5--8----------|
B  |---------------------------------------|

C# |-------------------------------------------------|
G# |-------------------------------------------------|
E  |-------------------------------------------------|
B  |--13p12---------13p12-0-0-0-0--------------------|
F# |--13p12-0-0-0-0-13p12-0-0-0-0--------------------|
B  |--13p12-0-0-0-0-13p12-0-0-0-0--------------------|

C# |---------------------------------------|
G# |---------------------------------------|
E  |---------------------------------------|
B  |--0----8---7---5-----------------------|
F# |--0----8---7---5-----------------------|
B  |--0----8---7---5-----------------------|


C# |---------------------------------------------|
G# |---------------------------------------------|
E  |--14--15--14--12----14--15--14--12--10-------|
B  |---------------------------------------------|
F# |--12--13--12--10----12--13--12--10--8--------|
B  |---------------------------------------------|
Suggest correction
Give kudos to tab author, rate the tab!
1 2 3 4 5
comments
print report bad tab
guest
You may want to rate the tab now too:
select rating
Wanna post a correction for this tab? Suggest correction