Oops, an error
Loading. Please wait.

Down Poison Tab

version 2
version 2

Whole song

Interactive

1,749 views 3 this week
2 commentsread comments
1 2 3 4 5
accurate
x 5
add to favorites
launch autoscroll
font size
0
reset
how to read this tab
guitar tuner
Autoscroll
slow
fast
+/-
esc
set tempo
stop
Help us to improve Ultimate-Guitar.com Take our survey!
×
Band- 3 Doors Down
Song- Down Poison

Gtrs.1 and 2 Dist.
----------------------------------------------------------------------|
----------------------------------------------------------------------|
---------------------------------0------------------------------------|
-----5-----4-----2---------------0-------5-----4------2---------------|
-----3-----2-----2-----------------------3-----2------2---------------|
-0-0---0-0---3-2-0----------0-0--3---3-3---0-0---3-2--0-----0-0-------|
Acous. Gtr.1
-------------------------------------------------------------------|
-------------------------------------------------------------------|
-0-----------------------------------------------------------------|
-0-------5------4-------2------------------------------------------|
---------3------2-------2------------------------------------------|
-3---3-3----0-0----3-2--0------------------------------------------|
Gtr.3 12 string
----0--------0------0------0-----0------------------------------------|
--------0------0--------0----0-------0---0------0---0-----------------|
-1----1---1-------1---1------------1---1---0--0---1---1---------------|
----------------------------------------------------------------------|
----------------------------------------------------------------------|
----------------------------------------------------------------------|
Gtr.4 clean tone
------------------------0-----------------------------------------|
------------------0-----------1---0--1---0------------------------|
---------------------0----------0------0--------0--------0--------|
-0--------------------------------------------4-------0--0--------|
----------------------------3---------------2---------0-----------|
-3------------------------------------------------3---------------|

-------3-------------3----------3--0----0-------------------------|
-----3---3----3--3---3---3---3--3--0--1---1-0-1---0------0--0--0--|
-----------0-----0-------0---0------------------0------0----------|
-0---------------------------0------------------------------------|
-----------------------------------------------------2------------|
-3----------------------------------------------------------------|
Gtr.3 and 4 and acoustic Gtr.1
--------------------------------0------0----------------------------|
-0--------------0-------------0-0------0---0--0---------------------|
-1--------------1-------------1-1------1---1--1---1----0------------|
-2---------2----2---------2---2-2------2---2--2---2----0------------|
-2---------2--------------2-----2----2------------2----0------------|
-0---------0--------------0-----0----0------------0-----------------|

3--------------3--------------------------------------------------------|
0-----0--------0------0-----0---0------1---0-1---0-----0----------------|
0-----0--------0------0-----0------------0-----0-----0---------0--------|
0-----0--------0------0---0-0-------------------------------0--0--------|
------------------------------------3--------------2-----2--0-----------|
3-----3----3---------------------------------------------3--------------|

------------------------------------0-------------------------------|
-0-------------0----------0--0------0---0---------------------------|
-1-------------1----------1--1------1---1---1------1---0------------|
-2----------2--2-------2--2--2------2---2---2------2---0------------|
-2----------2----------2-----2---2-----------------2---0------------|
-0----------0----------0-----0---0-----------------0----------------|
Gtrs. 1 and 2
-3------------3------------------------------------------------------|
-0----0-------0----0------0-----1---0-1------------------------------|
-0----0-------0----0---0--0-------0----------------------------------|
-0----0-------0--------0----------------------5-------4--------------|
------------------------------3---------------3-------2--------------|
-3----3----3-----------------------------0--0----0--0----3--3--------|
Gtr.4
---------------------------------------------------------------|
-------------------------1----0--------------------------------|
---------0----------0------------------------------------------|
-----2----------2----------------------------------------------|
------------3--------------------------------------------------|
--0------------------------------------------------------------|
Gtrs.1 and 2
-----------------------------------------------------------------|
-----------------------------------------------------------------|
-0---------------------------------------------------------------|
-0--------------5-------------0---2--------2---5-------4--4------|
----------------3---------0-2------------------3-------2--2------|
-3---------3--3-----0--0--------------0--------------------------|

-----------------------------------------------------------------|
---------0-----------------0--------------------------1---0------|
------------------------------0---------0---------0--------------|
-----2--------4-------4-------------2---------2------------------|
-0---------------2-------------------------3---------------------|
---------------------------------0-------------------------------|

------------------------------------------------------------------|
------------------------------------------------------------------|
------------------------------------------------------------------|
-2---------------4-------------0-----2------2--5------4--4--------|
-0---------------2--------0--2-----------------3------2--2--------|
----------------------------------------0-------------------------|
Gtr.4
-----------------------------------------------------------------|
----------0---------------0-------------0--------------0---------|
------------------------------0------------------------------0---|
-----2---------4-------4------------2-------4------4-------------|
-0-----------------2-------------0-------------2-----------------|
-----------------------------------------------------------------|
Gtrs. 1 and 2
-----------------------------------------------------------------|
-----------------------------------------------------------------|
-----------------------------------------------------------------|
-2------------4---------2----------4-------------0---------------|
-0------------2---------0----------2--------0--2-----------------|
-----------------------------------------------------------------|
Gtr.5  SOLO
-12b1--12b1--12b1--12b1--12-12b1--12-12-12----------------15-15b1-----|
-12----12----12----12----12-12----12-12-12----------------------------|
-14----14----14----14-------14----------14-14-14--14-12---------------|
--------------------------------------------------------14------------|
----------------------------------------------------------------------|
----------------------------------------------------------------------|
Gtrs. 1 and 2
----------------------------------------------------------------------|
----------------------------------------------------------------------|
----------------------------------------------------------------------|
-2-----2--------------------------------2-----------------------------|
-2-----0-----1---2---2---------0-3----3---3-2-3-2---------------------|
-0-------------------0----0--0---------------------3--3---------------|
Gtr. 5
-17b1-17-15------------------------------------------------------------|
------------17-17-17b1/2-----------------------------------------------|
-------------------------4b1/2--4-2----------7/9-9-9/11-11-11-12-------|
------------------------------------4b1/2--0---------------------------|
---------------------------------------------5/7-7-7/9--9--9--10-------|
-----------------------------------------------------------------------|

--------------------------------------------------------------------|
--------------------------------------------------------------------|
-12-12/14-14-14/16--16/17-16--14--16/17-16-14-----------------------|
--------------------------------------------------------------------|
-10-10/12-12-12/14--14/15-14--12--14/15-14-12--7\5-0-2-0------------|
---------------------------------------------------------3--3-------|
      bend 1        b1
-------12------15---12------12----15-14-12-----------------------------|
-------15-----------15------15-15----------15-13-12---------------0----|
-4--------------------------------------------------14-12-11-----------|
-2-----------------------------------------------------------14-0------|
-2--2------------------------------------------------------------------|
-0--0------------------------------------------------------------------|
Outro Gtrs. 1 and 2
-----------------------------------------------------------------------|
-----------------------------------------------------------------------|
-----------------------------0---------------------------0-------------|
-2-2--x-x-x-2-2--x-x-x-x-x-x-0-2-2-x-x-x-x-2-2-x-x-x-x-x-0-------------|
-2-2--x-x-x-2-2--x-x-x-x-x-x-0-2-2-x-x-x-x-2-2-x-x-x-x-x-0-------------|
-0-0--x-x-x-0-0--x-x-x-x-x-x---0-0-x-x-x-x-0-0-x-x-x-x-x---------------|

-------------------------------------------------------------|
-------------------------------------------------------------|
-----------------------------0-------------------------------|
-2-2-x-x-x-x-2-2-x-x-x-x-x-x-0-2-2-x-x-x-x-2-2---------------|
-2-2-x-x-x-x-2-2-x-x-x-x-x-x-0-2-2-x-x-x-x-2-2---------------|
-0-0-x-x-x-x-0-0-x-x-x-x-x-x---0-0-x-x-x-x-0-0---------------|
Suggest correction
comments
print report bad tab
2 comments total.
0 reply
ordinarystory 115 wrote on February 7 2007, 11:37 pm

sorry but sloppy tab work just hard to read :-\

0 reply
bmarlatt1685 122 wrote on August 29 2011, 04:29 pm

I agree with the sloppiness, but I still gave it a 4 for the accuracy after piecing everything together.

guest
You may want to rate the tab now too:
select rating
Please do not post tabs as comments. Select "correction" instead!