Oops, an error
Loading. Please wait.

Duck And Run Bass Tab

version 3
version 3

Whole song

Interactive

758 views 1 this week
no commentswrite comment
1 2 3 4 5
3 more votes to show rating
add to favorites
launch autoscroll
font size
0
reset
guitar tuner
Autoscroll
slow
fast
+/-
esc
set tempo
stop
Help us to improve Ultimate-Guitar.com Take our survey!
×
Author
Difficulty
intermediate
Duck and Run
3 Doors Down

Tabbed by Brandon Terrill

\=slide

Guitar intro							     3X
G|---|------||-------------------------|---------------------------||
D|---|------||-0-2-2-2-2-2-------------|-0-2-2-2-2-2---------------||
A|---|------||-------------0-3-2-0-2-3-|-------------0-3-2-0-2-3-2-||
E|---|------||-------------------------|---------------------------||

Pre-verse and Verse					  6X
G||-------------------------|---------------------------||
D||-0-2-2-2-2-2-------------|-0-2-2-2-2-2---------------||
A||-------------0-3-2-0-2-3-|-------------0-3-2-0-2-3-2-||
E||-------------------------|---------------------------||

Chorus				   2X
G||---------------|---------------||
D||---------------|-------------0-||
A||---------------|-3-3-3-2-2-3---||
E||-0-0-0-3-3-2-0-|---------------||

Interlude
G||-------------|---------------|-------------|---------------||
D||-------------|---------------|-------------|---------------||
A||-7\2-3-0-2-3-|-7\2-3-0-2-3-2-|-7\2-3-0-2-3-|-7\2-3-3-3-3-3\||
E||-------------|---------------|-------------|---------------||

Verse							  4X
G||-------------------------|---------------------------||
D||-0-2-2-2-2-2-------------|-0-2-2-2-2-2---------------||
A||-------------0-3-2-0-2-3-|-------------0-3-2-0-2-3-2-||
E||-------------------------|---------------------------||

Chorus				   4X
G||---------------|---------------||
D||---------------|-------------0-||
A||---------------|-3-3-3-2-2-3---||
E||-0-0-0-3-3-2-0-|---------------||

Bridge						      2X
G||-----------|------------|-----------|------------||
D||-----------|-10-9-12-12-|-----------|-10-9-12-12-||
A||-7---7---7-|------------|-7---7---7-|------------||
E||---8---8---|------------|---8---8---|------------||

Guitar solo and Breakdown				  6X
G||-------------------------|---------------------------||
D||-0-2-2-2-2-2-------------|-0-2-2-2-2-2---------------||
A||-------------0-3-2-0-2-3-|-------------0-3-2-0-2-3-2-||
E||-------------------------|---------------------------||

Chorus				   8X
G||---------------|---------------||
D||---------------|-------------0-||
A||---------------|-3-3-3-2-2-3---||
E||-0-0-0-3-3-2-0-|---------------||

Outro
G||-------------|---------------|-------------|---------------||
D||-------------|---------------|-------------|---------------||
A||-7\2-3-0-2-3-|-7\2-3-0-2-3-2-|-7\2-3-0-2-3-|-7\2-3---------||
E||-------------|---------------|-------------|---------------||
Suggest correction
Give kudos to tab author, rate the tab!
1 2 3 4 5
comments
print report bad tab
guest
You may want to rate the tab now too:
select rating
Wanna post a correction for this tab? Suggest correction