Oops, an error
Loading. Please wait.

Duck And Run Tab

version 3
version 3

Intro

Interactive

2,097 views 1 this week
1 commentread comment
1 2 3 4 5
worth learning
x 3
add to favorites
launch autoscroll
font size
0
reset
how to read this tab
guitar tuner
Tab Pro tools
  • play this tab
  • loop segment
  • change instrument
  • show fretboard
  • metronome
Autoscroll
slow
fast
+/-
esc
set tempo
stop
Contributor

Author/Artist: 3 Doors Down
Title: Duck and Run
Album: The Better Life
Transcribed by: Scott Korber
Email: Skaterscott77@aol.com

-0000000-3-3-2-0-000000-0-0-0-0-0-000000-3-3-2-55-000000-0-0-0-0-0----------
-0000000-0-0-0-0-111111-0-0-1-1-3-000000-0-0-0-00-111111-0-0-1-1-3---2x-----
----------------------------------------------------------------------------
----------------------------------------------------------------------------
----------------------------------------------------------------------------
----------------------------------------------------------------------------
 Intro                                                                        

-----------------------------------------------|----------------------------
-----------------------------------------------|----------------------------
-----------------------------------------------|----------------------------
-0h2-22222-----------0h2-22222-----------------|----------------------------
-----------3-2-0-2-3-----------3-2-0-2h3p2--2x-|----------------------------
-----------------------------------------------|----------------------------
                                                                              

-----------------------------------------------|----------------------------
-----------------------------------------------|----------------------------
-----------------------------------------------|----------------------------
-0h2-22222-----------0h2-22222-----------------|----------------------------
-----------3-2-0-2-3-----------3-2-0-2h3p2--4x-|----------------------------
-----------------------------------------------|----------------------------
 Verse                                                                        

----------------------------------------------------------------------------|
----------------------------------------------------------------------------|
-------5-4--------4-4-5-2-4-5----4-4-5-2-4/5\4----4-4-5-2-4-5----4-4-5-5555b|
-2-5-4-5-4-5------2-4-5-2-4-5----2-4-5-2-4/5\4----2-4-5-2-4-5----2-4-5-5555b|
-2-5-4-3-2-5--2x----2-3-0-2-3------2-3-0-2/3\2------2-3-0-2-3------2-3-3333b|
-0-3-2-----3----------------------------------------------------------------|
 Course1                                                                     

--------------------------------------------------|-------------------------
--------------------------------------------------|-------------------------
-------5-4--------------------4---------5-4-2-----|-------------------------
-2-5-4-5-4-5------2222222-5-4-4-2222222-5-4-2--2x-|-------------------------
-2-5-4-3-2-5--4x--2222222-5-4-2-2222222-3-2-0-----|-------------------------
-0-3-2-----3------0000000-3-2---0000000-----------|-------------------------
 Course2                                                                     

---------------------------------------------------------------------|------
---------------------------------------------------------------------|------
-----12-11-12p11-------12-11-12p11-12/14-12-12-12-11-12p11-----------|------
-/14-------------12/14-------------------------------------12/14--2x-|------
---------------------------------------------------------------------|------
---------------------------------------------------------------------|------
 GuitarSolo                                                                  

----------------------------------------------------------------------------
----------------------------------------------------------------------------
----------------------------------------------------------------------------
-0h2222-----------0h2222-------------0h2222-----------0h2222----------------
--------3-2-0-2-3--------3-2-0-2h3p2--------3-2-0-2-3--------3-2-0-2h3p2----
----------------------------------------------------------------------------
 Interlude                                                                    

----------------------------------------------------------------------------
----------------------------------------------------------------------------
-------5-4-------4-4-5--------4-4-5-2-4/5\4--4-4-5-2-4-5--4-4-5-------------
-2-5-4-5-4-5-----2-4-5-2-4-5--2-4-5-2-4/5\4--2-4-5-2-4-5--2-4-5-------------
-2-5-4-3-2-5--8x---2-3-0-2-3----2-3-0-2/3\2----2-3-0-2-3----2-3-------------
-0-3-2-----3----------------------------------------------------------------
 Course 3
comments
We did not receive enough feedback on this tab! Please rate:
print report bad tab
1 2 3 4 5
1 comment total.
0 reply
kh51501 wrote on October 26 2005, 03:35 pm

wrong chorus,wrong intro,right melody,just play power chords on the a string and figure it out

I want to post or [tab]
guest
You may want to rate the tab now too:
select rating
Please do not post tabs as comments. Select "correction" instead!