Oops, an error
Loading. Please wait.

Duck And Run Tab

version 5
version 5

Interactive

3,557 views 1 this week
no commentswrite comment
1 2 3 4 5
3 more votes to show rating
add to favorites
launch autoscroll
font size
0
reset
how to read this tab
guitar tuner
Autoscroll
slow
fast
+/-
esc
set tempo
stop
Help us to improve Ultimate-Guitar.com Take our survey!
×
3 Doors Down
Duck and Run
tabbed by shadowspec
I tabbed this song while listening the another 7 hundred miles live cd and when I heard 
tabbed that too so here are both, pick the one you like most.
Intro:(Concert)
E|---------------------------------------------------------------|
B|---------------------------------------------------------------|
G|---------------------------------------------------------------|
D|--7-7-10-10-9-9-9--------------7-7-10-10-9-9-9-12--------------|
A|--5-5-8--8--7-7-7-8-8-7-7-8-10-5-5-8--8--7-7-7-10-8-8-7-7-8-10-|
E|------------------6-6-5-5-6-8---------------------6-6-5-5-6-8--|

(Cd)
E|-------------------------------------------|
B|-------------------------------------------|
G|-------------------------------------------|
D|--12-12-15-15-14-14-14---------------------|
A|-----------------------13-13-12-12-13-15---|
E|-------------------------------------------|

----------------------------------------------|
----------------------------------------------|
-----------------------12---------------------|
--12-12-15-15-14-14-14------------------------|
--------------------------13-13-12-12-13-15---|
----------------------------------------------|

Verse:
E|-------------------|
B|-------------------|
G|-------------------|
D|--7-9-9------------|
A|--5-7-7-10-9-7-7-9-|
E|--------8--7-5-5-7-|

Chorus:(Same as Intro)

Bridge:
E|--------------|
B|--------------|
G|--------------|
D|--7-----------|
A|--5-7-8-5-7-8-|
E|----5-6-3-5-6-|

Interlude:
E|-----------1-----------|
B|-------3-1-------------|
G|-----------------2-0---|
D|---------------------3-|
A|--5-5--------5-5-------|
E|--3-3--------3-3-------|

Solo:
E|--------------------------------------------------------|
B|--------------------------------------------------------|
G|-----10-9-10-9-------10-9-10-9-12-10-10-10-9-10-9-------|
D|--12-----------10-12------------------------------10-12-|
A|--------------------------------------------------------|
E|--------------------------------------------------------|

Do that twice
That's basically the whole song
Suggest correction
Give kudos to tab author, rate the tab!
1 2 3 4 5
comments
print report bad tab
guest
You may want to rate the tab now too:
select rating
Wanna post a correction for this tab? Suggest correction