Oops, an error
Loading. Please wait.

Duck And Run Tab

version 6
version 6

Interactive

1,948 views 3 this week
1 commentread comment
1 2 3 4 5
please rate
add to favorites
launch autoscroll
font size
0
reset
how to read this tab
guitar tuner
Tab Pro tools
  • play this tab
  • loop segment
  • change instrument
  • show fretboard
  • metronome
×
Best way to learn
"Duck And Run"
Autoscroll
slow
fast
+/-
esc
set tempo
stop
Contributor
Difficulty
tabbed by: hardrockker917

Intro:
e-0--0--0--0--0-0--3--3--2-2-0--------------------------------|
b---------------------------------1--1-1-1-1--0--0--1-1--3----|
g-------------------------------------------------------------|
d-------------------------------------------------------------|
a-------------------------------------------------------------|
e-------------------------------------------------------------|

e-0--0-0-0--0-0--3-3--2-2-5-----------------------------------|
b-----------------------------1--1-1-1-1--0--0--1-1--3--------|
g-------------------------------------------------------------|x2
d-------------------------------------------------------------|
a-------------------------------------------------------------|
e-------------------------------------------------------------|


e ------------------------------------------------------------|
b ------------------------------------------------------------|
g ------------------------------------------------------------|
d -0h2-(0)-(0)-(0)-(0)----------------------------------------|
a ----------------------3-2--0-2-3----------------------------|
e ------------------------------------------------------------|

e ------------------------------------------------------------|
b ------------------------------------------------------------|
g ------------------------------------------------------------|
d -0h2-(0)-(0)-(0)-(0)----------------------------------------|x6
a ----------------------3-2-0-2h3p2p0-------------------------|
e ------------------------------------------------------------|

Chorus
e ------------------------------------------------------------|
b ------------------------------------------------------------|
g -9-999--12-12-x-11-9--5-555--4-4-x-5-7----------------------|
d -9-999--12-12-x-11-9--5-555--4-4-x-5-7----------------------|
a -7-777--10-10-x--9-7--3-333--2-2-x-3-5----------------------|
e ------------------------------------------------------------|

e ------------------------------------------------------------|
b ------------------------------------------------------------|
g -9-999--12-12-x-11-14--5-555--4-4-x-5-7---------------------|
d -9-999--12-12-x-11-14--5-555--4-4-x-5-7---------------------|x1
a -7-777--10-10-x--9-12--3-333--2-2-x-3-5---------------------|
e ------------------------------------------------------------|
Bridge 1
e--------------------------------------------------------------|
B--------------------------------------------------------------|
G--9-----------------------9-----------------------------------|
D--9---9---10---7---9-10---9---9---10--7---9/109---------------|
A--7---9---10---7---9-10---7---9---10--7---9/109---------------|
E------7---8----5---7-8--------7---8---5---9/8-9---------------|

e-------------------------------------------------------------|
B-------------------------------------------------------------|
G--9-----------------------9----------------------------------|
D--9---9---10---7---9-10---9---9---10--10-10-10---------------|
A--7---9---10---7---9-10---7---9---10--10-10-10---------------|
E------7---8----5---7-8--------7---8---8--8--8----------------|


e ------------------------------------------------------------|
b ------------------------------------------------------------|
g ------------------------------------------------------------|
d -0h2-(0)-(0)-(0)-(0)----------------------------------------|
a ----------------------3-2--0-2-3----------------------------|
e ------------------------------------------------------------|

e ------------------------------------------------------------|
b ------------------------------------------------------------|
g ------------------------------------------------------------|
d -0h2-(0)-(0)-(0)-(0)----------------------------------------|x4
a ----------------------3-2-0-2h3p2p0-------------------------|
e ------------------------------------------------------------|

Chorus
e ------------------------------------------------------------|
b ------------------------------------------------------------|
g -9-999--12-12-x-11-9--5-555--4-4-x-5-7----------------------|
d -9-999--12-12-x-11-9--5-555--4-4-x-5-7----------------------|
a -7-777--10-10-x--9-7--3-333--2-2-x-3-5----------------------|
e ------------------------------------------------------------|

e ------------------------------------------------------------|
b ------------------------------------------------------------|
g -9-999--12-12-x-11-14--5-555--4-4-x-5-7---------------------|
d -9-999--12-12-x-11-14--5-555--4-4-x-5-7---------------------|x2
a -7-777--10-10-x--9-12--3-333--2-2-x-3-5---------------------|
e ------------------------------------------------------------|


Pre-Solo
e-------------------------------------------------------------|
B-------------------------------------------------------------|
G-9------9------9--12--11--14---14-14-------------------------|
D-9---9--9---9--9--12--11--14---14-14-------------------------|
A-7---9--7---9--7--10--9---12---12-12-------------------------|
E-----7------7------------------------------------------------|

e-------------------------------------------------------------|
B-------------------------------------------------------------|
G-9------9------9------------------7--------------------------|
D-9---9--9---9--9--10--9---7--9-10-7--------------------------|x2
A-7---9--7---9--7--10--9---7--9-10-5--------------------------|
E-----7------7-----8---7---5--7-8-----------------------------|

Solo
e-------------------------------------------------------------|
B-------------------------------------------------------------|
G-------------------------------------------------------------|
D-----5--4-5-4--------5--4-5-4--7-5----5--4-5-4---------------|x2
A-7------------5--7------------------------------5-7----------|
E-------------------------------------------------------------|

e-------------------------------------------------------------|
B-----10-9-10-9-------10-9-10-9--12-10----10--9-10-9----------|
G-9-------------7-9----------------------------------7-9------|
D-------------------------------------------------------------|
A-------------------------------------------------------------|
E-------------------------------------------------------------|


e ------------------------------------------------------------|
b ------------------------------------------------------------|
g ------------------------------------------------------------|
d -0h2-(0)-(0)-(0)-(0)----------------------------------------|
a ----------------------3-2--0-2-3----------------------------|
e ------------------------------------------------------------|

e ------------------------------------------------------------|
b ------------------------------------------------------------|
g ------------------------------------------------------------|
d -0h2-(0)-(0)-(0)-(0)----------------------------------------|x2
a ----------------------3-2-0-2h3p2p0-------------------------|
e ------------------------------------------------------------|
Chorus
E ------------------------------------------------------------|
B ------------------------------------------------------------|
G -9-999--12-12-x-11-9--5-555--4-4-x-5-7----------------------|
D -9-999--12-12-x-11-9--5-555--4-4-x-5-7----------------------|
A -7-777--10-10-x--9-7--3-333--2-2-x-3-5----------------------|
E ------------------------------------------------------------|

E-------------------------------------------------------------|
B-------------------------------------------------------------|
G--9-999--12-12-x-11-9--5-555--4-4-x-5-7----------------------|
D--9-999--12-12-x-11-9--5-555--4-4-x-5-7----------------------|x4
E--7-777--10-10-x--9-9--3-333--2-2-x-3-5----------------------|
E-------------------------------------------------------------|

End
E-------------------------------------------------------------|
B-------------------------------------------------------------|
G--9-----------------------9----------------------------------|
D--9---9---10---7---9-10---9---9---10--7---9-10-9-------------|
A--7---9---10---7---9-10---7---9---10--7---9-10-9-------------|
E------7---8----5---7-8--------7---8---5---9-8--9-------------|

E-------------------------------------------------------------|
B-------------------------------------------------------------|
G--9-----------------------9----------------------------------|
D--9---9---10---7---9-10---9---9---10-------------------------|
A--7---9---10---7---9-10---7---9---10-------------------------|
E------7---8----5---7-8--------7---8--------------------------|
comments
We did not receive enough feedback on this tab! Please rate:
print report bad tab
1 2 3 4 5
1 comment total.
0 reply
StaindFan97 wrote on October 16 2013, 06:46 pm

Second part of the solo should be either the same as the first part, or:

e-------------------------------------------------------------|
B-----8--7-8-7---------8--7-8-7--10-8----8--7-8-7-------------|
G-9-------------7-9----------------------------------7-9~-----|
D-------------------------------------------------------------|
A-------------------------------------------------------------|
E-------------------------------------------------------------|

I want to post or [tab]
guest
You may want to rate the tab now too:
select rating
Please do not post tabs as comments. Select "correction" instead!