Oops, an error
Loading. Please wait.

Fathers Son Tab

version 1
version 1

Whole song

14,921 views 6 this week
no commentswrite comment
1 2 3 4 5
x 8
add to favorites
launch autoscroll
font size
0
reset
how to read this tab
guitar tuner
Autoscroll
slow
fast
+/-
esc
set tempo
stop
Author
3 Doors Down - Father's son

Tabbed by: -Fuxx-
E-Mail: blueblizzard@arcor.de

Tuning: EADgbe

I think this is really close to the song. Feel free to email me for any corrections.


Intro (1st time clean, 2nd time with distortion and wah, turn off the wah for the chords)

e|-------------------------0-----------------------------------------0-0-0---0-0-0--|
B|---3-----3---------6-------6-------1-----1---------3-----3---------3-3-1---1-1-3--|
G|-----0-----0---------0-------0-------0-----0---------0-----0-------0-0-0---0-0-0--|
D|-------5---------------8---------------3---------------5-----5-----5-5-3---3-3-5--|
A|-5-----------5s8-----------------3-----------3s5---------------5---5-5-3---3-3-5--|
E|----------------------------------------------------------------------------------|


Verse (0:24)

e|-------------------------0-----------------------------------------0-0-0---0-0-0--|
B|---3-----3---------6-------6-------1-----1---------3-----3---------3-3-1---1-1-3--|
G|-----0-----0-------0---------0-------0-----0---------0-----0-------0-0-0---0-0-0--|
D|-------5---------------8---------------3---------------5-----5-----5-5-3---3-3-5--|
A|-5-----------5s8-----------------3-----------3s5---------------5---5-5-3---3-3-5--|
E|----------------------------------------------------------------------------------|


e|-------------------------0-----------------------------------------0-0-0---0-0-0--|
B|---3-----3---------6-------6-------1-----1---------3-----3---------3-3-1---1-1-3--|
G|-----0-----0---------0-------0-------0-----0---------0-----0-------0-0-0---0-0-0--|
D|-------5---------------8---------------3---------------5-----5-----5-5-3---3-3-5--|
A|-5-----------5s8-----------------3-----------3s5---------------5---5-5-3---3-3-5--|
E|----------------------------------------------------------------------------------|


Verse 2x with Delay ca.600ms (0:47)

e|-------------------------0--------------------------------------------------------|
B|---3-----3---------6-------6-----------3p1---------3p0----------------------------|
G|-----0---------------0-------0-----0---------------------0------------------------|
D|----------------------------------------------------------------------------------|
A|-5-------------8-----------------3-------------5----------------------------------|
E|----------------------------------------------------------------------------------|

e|-----------------------------------------------0----------------------------------|
B|---3-----3-------6-----------------1-----1-----3---3-----3------------------------|
G|-----0---------0---------------------0-----0---0-----4----------------------------|
D|---------------------5---------------0-----0---5----------------------------------|
A|-5-------------------------------3-----3-------5----------------------------------|
E|----------------------------------------------------------------------------------|


Refrain 2x (1:11)
                 PM..|                                        PM..|
e|----------------------------------------------------------------------------------|
B|----------------------------------------------------------------------------------|
G|-x-x-x-x-0----------3---------3-3-3s5-5-5-5-3-------------------------------------|
D|-x-x-x-x-0-1----1-1-3---------3-3-3s5-5-5-5-3-5------5-5-3h5-5-5------------------|
A|-x-x-x-x-0-1----1-1-1---------1-1-1s3-3-3-3-3-5------5-5-3h5-5-5------------------|
E|-x-x-x-x-0----------1---------1-1-1s3-3-3-3-3-3------3-3-3---3-3------------------|

                                                  PM..|        PM..|
e|----------------------------------------------------------------------------------|
B|----------------------------------------------------------------------------------|
G|--------------------3---------3-----------------------------------------0---------|
D|---------1----1-0---3---------3--------3-------3-3-3-3------3-3-3-3---3-0---------|
A|---------1----1-0---1---------1--------3-------3-3-3-3------3-3-3-3---3-0---------|
E|----------------0---1---------1--------1-------1-1-1-1------1-1-1-1---1-0---------|


Intro 3x (1:36)


Refrain 2x (2:12)


Bridge 1 (with octaver effect) (2:36)

e|----------------------------------------------------------------------------------|
B|----------------------------------------------------------------------------------|
G|--------------------------------------------5--5----------------------------------|
D|--------------------------------------------5--5----------------------------------|
A|-------1-----s6~~------------1-----s6~~-----3--3----------------------------------|
E|-1h3-3---3-3-----------1h3-3---3-3----------3--3----------------------------------|


e|----------------------------------------------------------------------------------|
B|----------------------------------------------------------------------------------|
G|----------------------------------------------------------------------------------|
D|-----------------------------------3----------------------------------------------|
A|-------1-----s6~~------------1-----3----------------------------------------------|
E|-1h3-3---3-3-----------1h3-3---3-0-1----------------------------------------------|


Bridge 2 3x (2:48)

e|----------------------------------------------------------------------------------|
B|-----------------1------------------------3s4s3---0-------------------------------|
G|------0--------------0------------------0-------------0---------------------------|
D|--------0----------------0------------0-------------------------------------------|
A|------------1--------------1-3----3-----------------------------------------------|
E|-3--------3-----------------------------------3-----------------------------------|

e|------------------------------------------3---------------------------------------|
B|---------------1--------------------------3---------------------------------------|
G|------0----------------------------0------0---------------------------------------|
D|--------0------------------------3---3----0---------------------------------------|
A|------------1--------1s3-3-----3----------2---------------------------------------|
E|-123------3----------------3-1---------0--3---------------------------------------|


Refrain 2x (3:24)


Bridge 1 (3:49)
Suggest correction
comments
print report bad tab
guest
You may want to rate the tab now too:
select rating
Wanna post a correction for this tab? Suggest correction