Oops, an error
Loading. Please wait.

Going Down In Flames Bass Tab

version 1
version 1

Whole song

Interactive

1,816 views 3 this week
no commentswrite comment
1 2 3 4 5
2 more votes to show rating
add to favorites
launch autoscroll
font size
0
reset
guitar tuner
Autoscroll
slow
fast
+/-
esc
set tempo
stop
Help us to improve Ultimate-Guitar.com Take our survey!
×
Author
Difficulty
novice
-----------------------------------------------------------------
Going Down in Flames - 3 Doors Down
-----------------------------------------------------------------

Tabbed By : truti
e-mail: etoilebr@gmail.com

Note: you can also play  the intro like this:
G|---------------------------------------------------------------|
D|---------------------------------------------------------------|
A|--7--9--10-----9--10-------7--9--10-----10--9------------------|
E|------------8------------------------8-------------------------|
your call.

Tuning: EADG

Intro: (0:02)
G|---------------------------------------------------------------|
D|---------------------------------------------------------------|
A|-----------3-------------------------3-------------------------|
E|--0--2--3-----2--3----------0--2--3-----3--2-------------------|

G|---------------------------------------------------------------|
D|---------------------------------------------------------------|
A|-----------3-------------------------3--2--0-------------------|
E|--0--2--3-----2--3----------0--2--3----------------------------|

Verse 1: Don't tell me... (0:15)
G|---------------------------------------------------------------|
D|---------------------------------------------------------------|
A|---------------3-3-3-3-3-3-3---------------5-5-5-5-5-5-5-------| 2x
E|-0-0-0-0-0-0-0---------------3-3-3-3-3-3-3---------------------|

Pre-chorus/Chorus: Cacth me when I fall... (0:30)/ I'm going down... (0:44)
G|---------------------------------------------------------------|
D|---------------------------------------------------------------|
A|---------3~----------5~-----------------3~-----------5~--------| 2x
E|---0-2-3-------3~------------------0-2-3-------3~--------------|

Play Again :
  Intro (1:00)
  Verse (1:13)
  Pre/Chorus (1:28)/(1:42)

Verse 2: Now... (1:57)
G|---------------------------------------------------------------|
D|---------------------------------------------------------------|
A|---------------3-3-3-3-3-3-3---------------0-0-0-0-0-0-0-------| 2x
E|-0-0-0-0-0-0-0---------------3-3-3-3-3-3-3---------------------|

Bridge: Again now... (2:12)
G|---------------------------------------------------------------|
D|----0--2------------------------------0--2---------------------|
A|----------3--2--0---------------------------3--2--0------------| 4x
E|-0---------------------------------0---------------------------|

Chorus: I'm going down... (2:41)
G|---------------------------------------------------------------|
D|---------------------------------------------------------------|
A|---------3~----------5~-----------------3~-----------5~--------| 2x
E|---0-2-3-------3~------------------0-2-3-------3~--------------|

Verse 2:  Now... (2:56)
G|---------------------------------------------------------------|
D|---------------------------------------------------------------|
A|---------------3-3-3-3-3-3-3---------------0-0-0-0-0-0-0-------| 2x
E|-0-0-0-0-0-0-0---------------3-3-3-3-3-3-3---------------------|

Outro: Again now... (3:10)
G|---------------------------------------------------------------|
D|---------------------------------------------------------------|
A|---------------3-3-3-3-3-3-3---------------0~------------------| 
E|-0-0-0-0-0-0-0---------------3-~-----------------------0~------|
Suggest correction
Give kudos to tab author, rate the tab!
1 2 3 4 5
comments
print report bad tab
guest
You may want to rate the tab now too:
select rating
Wanna post a correction for this tab? Suggest correction