Oops, an error
Loading. Please wait.

Going Down In Flames Tab

version 1
version 1
11,252 views 9 this week
3 commentsread comments
1 2 3 4 5
accurate
x 6
add to favorites
launch autoscroll
font size
0
reset
how to read this tab
guitar tuner
Tab Pro tools
  • play this tab
  • loop segment
  • change instrument
  • show fretboard
  • metronome
Autoscroll
slow
fast
+/-
esc
set tempo
stop
Contributor
Artist: 3 Doors Down
Title: Going Down In Flames
Album: Away From the Sun
Tuning: Standard (E A D G B E)

Tabbed by: Adam (ninjaadam44@yahoo.com)


I got tired of looking for this, so I finally tabbed it out.  I'll probably do 
some more from the album if no one else does.  I'm not going to try to show the 
timing or rhythm very well, so listen to the song for that stuff. oh yeah, you need 

distortion for this one :).

    intro
E|-------------------------------------------------------------------||
B|-------------------------------------------------------------------||
G|--9-11-12----11-12-9-11-12----12-11--------------------------------||
D|--9-11-12-10-11-12-9-11-12-10-12-11--------------------------------||
A|--7-9--10-10-9--10-7-9--10-10-10-9---------------------------------||
E|----------8----------------8---------------------------------------||
       (intro continued)                  verse 
E|----------------------------------|--------------------------------||
B|----------------------------------|--------------------------------||
G|-9-11-12----11-12-9-11-12---------|--4--4--5--5--------7--7--------||
D|-9-11-12-10-11-12-9-11-12-10-9-7--|--4--4--5--5--5--5--7--7--------||
A|-7-9--10-10-9--10-7-9--10-10-9-7--|--2--2--3--3--5--5--5--5--------||
E|---------8----------------8--7-5--|--------------3--3--------------||
   chorus                 outro
E|---------------------|-------------------|
B|---------------------|-------------------|
G|--9-11-12------------|-------------------|
D|--9-11-12-10--9--12--|--4-4-5-5----------|
A|--7-9--10-10--9--12--|--2-2-3-3-5-5-3-3--|
E|----------8---7--10--|----------3-3-1-1--|

in the verse you just strum and pick the individual notes of the power chords.
i was going to do a more intricate job of this tab, but decided it was a 
fairly simple song, and that that would be a little overkill...

comments, corrections, etc. can be sent to 
ninjaadam44@yahoo.com
comments
print report bad tab
3 comments total.
0 reply
afilover999 wrote on July 22 2005, 12:00 am

You did very well with this one, but there's one mistake. At least, this is how I play it:
intro
E|-------------------------------------------------------------------
B|-------------------------------------------------------------------
G|--9-11-12---11-12-9-11-12----12-11--------------------------------
D|--9-11-12-7-11-12-9-11-12-10-12-11--------------------------------
A|--7-9--10-7-9--10-7-9--10-10-10-9---------------------------------
E|----------5----------------8---------------------------------------

0 reply
AzzA2006 wrote on May 2 2008, 10:12 am

Just tried it out, and you got part of the intro wrong, iv corrected it for ya :)

Overall really good job :)

E|-------------------------------------------------------------------||
B|-------------------------------------------------------------------||
G|--9-11-12-----12-11--9-11-12----12-11------------------------------||
D|--9-11-12-10--12-11--9-11-12-10-12-11------------------------------||
A|--7-9--10-10--10-9-7-9--10-10-10-9---------------------------------||
E|----------8----------------8---------------------------------------||

0 reply
CKTabber wrote on April 18 2011, 07:23 pm

adam has it right, the two of you have it wrong. good tab.

I want to post or [tab]
guest
You may want to rate the tab now too:
select rating
Please do not post tabs as comments. Select "correction" instead!