Oops, an error
Loading. Please wait.

Going Down In Flames Tab

version 2
version 2
1,332 views 1 this week
no commentswrite comment
1 2 3 4 5
worth learning
x 1
add to favorites
launch autoscroll
font size
0
reset
how to read this tab
guitar tuner
Tab Pro tools
  • play this tab
  • loop segment
  • change instrument
  • show fretboard
  • metronome
Autoscroll
slow
fast
+/-
esc
set tempo
stop
Nice simple song. Great for beginers.
Tabbed by RF Bonwell

E-------------------------|-------------------------|
B-----5----7----7----8----|-----3----7----7----8----|
G-----4----6----6----7----|-----2----6----6----7----|
D-----2----4----4----5----|-----0----4----4----5----|
A-------------------------|-------------------------|
E-------------------------|-------------------------|


E-------------------------|-------------------------|
B-----5----7----7----8----|----------8----8----7----|
G-----4----6----6----7----|-----5----7----7----6----|
D-----2----4----4----5----|-----5----5----5----4----|
A-------------------------|-----3-------------------|
E-------------------------|-------------------------|


E-------------------------|-------------------------|
B-----5----7----7----8----|-----3----7----7----8----|
G-----4----6----6----7----|-----2----6----6----7----|
D-----2----4----4----5----|-----0----4----4----5----|
A-------------------------|-------------------------|
E-------------------------|-------------------------|


E-------------------------|-------------------------|
B-----5----7----7----8----|-------------------------|
G-----4----6----6----7----|-----5----4----2---------|
D-----2----4----4----5----|-----5----4----2---------|
A-------------------------|-----3----2----0---------|
E-------------------------|-------------------------|


E-------------------------|-------------------------|
B--------------------3----|--------------------3----|
G----------5---------2----|----------5---------2----|
D-----2----5----5----0----|-----2----5----5----0----|
A-----2----3----5---------|-----2----3----5---------|
E-----0---------3---------|-----0---------3---------|


E-------------------------|-------------------------|
B-------------------------|-------------------------|
G-------------------------|----------5---5----------|
D----------2---2----------|----------5---5----------|
A----------2---2----------|----------3---3----------|
E----------0---0----------|-------------------------|
             Dont tell me what to think

E-------------------------|-------------------------|
B-------------------------|----------3---3----------|
G-------------------------|----------2---2----------|
D----------5---5----------|----------0---0----------|
A----------5---5----------|-------------------------|
E----------3---3----------|-------------------------|
             cause I dont care this time

E-------------------------|-------------------------|
B-------------------------|-------------------------|
G-------------------------|----------5---5----------|
D----------2---2----------|----------5---5----------|
A----------2---2----------|----------3---3----------|
E----------0---0----------|-------------------------|
             Dont tell me what to believe

E-------------------------|-------------------------|
B-------------------------|----------3---3----------|
G-------------------------|----------2---2----------|
D----------5---5----------|----------0---0----------|
A----------5---5----------|-------------------------|
E----------3---3----------|-------------------------|
                cause you wont be there

E--------------------------|------------------------|
B--------------------------|-----------5------------|
G--------------------------|-----------5------------|
D------------2-------------|-----------3------------|
A------------2-------------|------------------------|
E------------0-------------|------------------------|
               to catch me when I fall

E-------------------------|-------------------------|
B-------------------------|------------3------------|
G-------------------------|------------2------------|
D------------5------------|------------0------------|
A------------5------------|-------------------------|
E------------3------------|-------------------------|
    but you'll need me when I'm not here at all

E--------------------------|------------------------|
B--------------------------|-----------5------------|
G--------------------------|-----------5------------|
D------------2-------------|-----------3------------|
A------------2-------------|------------------------|
E------------0-------------|------------------------|
                miss me when I'm gone

E-------------------------|-------------------------|
B-------------------------|------------3------------|
G-------------------------|------------2------------|
D------------5------------|------------0------------|
A------------5------------|-------------------------|
E------------3------------|-------------------------|
                   again.... yeah....

E-------------------------|-------------------------|
B-----5----7----7----8----|-------------------------|
G-----4----6----6----7----|-------------5-----------|
D-----2----4----4----5----|-------------5-----------|
A-------------------------|-------------3-----------|
E-------------------------|-------------------------|
             I'm going down in flames

E-------------------------|-------------------------|
B-------------------------|------------3------------|
G-------------------------|------------2------------|
D------------5------------|------------0------------|
A------------5------------|-------------------------|
E------------3------------|-------------------------|
         I'm falling into this again... yeah

E-------------------------|-------------------------|
B-----5----7----7----8----|-------------------------|
G-----4----6----6----7----|-------------5-----------|
D-----2----4----4----5----|-------------5-----------|
A-------------------------|-------------3-----------|
E-------------------------|-------------------------|
              I'm going down in flames

E-------------------------|-------------------------|
B-------------------------|------------3------------|
G-------------------------|------------2------------|
D------------5------------|------------0------------|
A------------5------------|-------------------------|
E------------3------------|-------------------------|
        I'm falling into this again... oh no

E-------------------------|-------------------------|
B-----5----7----7----8----|-----3----7----7----8----|
G-----4----6----6----7----|-----2----6----6----7----|
D-----2----4----4----5----|-----0----4----4----5----|
A-------------------------|-------------------------|
E-------------------------|-------------------------|


E-------------------------|-------------------------|
B-----5----7----7----8----|----------8----8----7----|
G-----4----6----6----7----|-----5----7----7----6----|
D-----2----4----4----5----|-----5----5----5----4----|
A-------------------------|-----3-------------------|
E-------------------------|-------------------------|


E-------------------------|-------------------------|
B-----5----7----7----8----|-----3----7----7----8----|
G-----4----6----6----7----|-----2----6----6----7----|
D-----2----4----4----5----|-----0----4----4----5----|
A-------------------------|-------------------------|
E-------------------------|-------------------------|


E-------------------------|-------------------------|
B-----5----7----7----8----|-------------------------|
G-----4----6----6----7----|-----5----4----2---------|
D-----2----4----4----5----|-----5----4----2---------|
A-------------------------|-----3----2----0---------|
E-------------------------|-------------------------|


E-------------------------|-------------------------|
B--------------------3----|--------------------3----|
G----------5---------2----|----------5---------2----|
D-----2----5----5----0----|-----2----5----5----0----|
A-----2----3----5---------|-----2----3----5---------|
E-----0---------3---------|-----0---------3---------|


E-------------------------|-------------------------|
B-------------------------|-------------------------|
G-------------------------|----------5---5----------|
D----------2---2----------|----------5---5----------|
A----------2---2----------|----------3---3----------|
E----------0---0----------|-------------------------|
             dont tell me how life is

E-------------------------|-------------------------|
B-------------------------|----------3---3----------|
G-------------------------|----------2---2----------|
D----------5---5----------|----------0---0----------|
A----------5---5----------|-------------------------|
E----------3---3----------|-------------------------|
      cause I dont really really wanna know

E-------------------------|-------------------------|
B-------------------------|-------------------------|
G-------------------------|----------5---5----------|
D----------2---2----------|----------5---5----------|
A----------2---2----------|----------3---3----------|
E----------0---0----------|-------------------------|
           dont tell me how this game ends

E-------------------------|-------------------------|
B-------------------------|----------3---3----------|
G-------------------------|----------2---2----------|
D----------5---5----------|----------0---0----------|
A----------5---5----------|-------------------------|
E----------3---3----------|-------------------------|
           cause we'll just see how it goes

E--------------------------|------------------------|
B--------------------------|-----------5------------|
G--------------------------|-----------5------------|
D------------2-------------|-----------3------------|
A------------2-------------|------------------------|
E------------0-------------|------------------------|
                catch me when I fall

E-------------------------|-------------------------|
B-------------------------|------------3------------|
G-------------------------|------------2------------|
D------------5------------|------------0------------|
A------------5------------|-------------------------|
E------------3------------|-------------------------|
     or you'll need me when I'm not here at all

E--------------------------|------------------------|
B--------------------------|-----------5------------|
G--------------------------|-----------5------------|
D------------2-------------|-----------3------------|
A------------2-------------|------------------------|
E------------0-------------|------------------------|
                miss me when I'm gone

E-------------------------|-------------------------|
B-------------------------|------------3------------|
G-------------------------|------------2------------|
D------------5------------|------------0------------|
A------------5------------|-------------------------|
E------------3------------|-------------------------|
                   again.... yeah....

E-------------------------|-------------------------|
B-----5----7----7----8----|-------------------------|
G-----4----6----6----7----|-------------5-----------|
D-----2----4----4----5----|-------------5-----------|
A-------------------------|-------------3-----------|
E-------------------------|-------------------------|
             I'm going down in flames

E-------------------------|-------------------------|
B-------------------------|------------3------------|
G-------------------------|------------2------------|
D------------5------------|------------0------------|
A------------5------------|-------------------------|
E------------3------------|-------------------------|
         I'm falling into this again... yeah

E-------------------------|-------------------------|
B-----5----7----7----8----|-------------------------|
G-----4----6----6----7----|-------------5-----------|
D-----2----4----4----5----|-------------5-----------|
A-------------------------|-------------3-----------|
E-------------------------|-------------------------|
              I'm going down in flames

E-------------------------|-------------------------|
B-------------------------|------------3------------|
G-------------------------|------------2------------|
D------------5------------|------------0------------|
A------------5------------|-------------------------|
E------------3------------|-------------------------|
              I'm falling into this again

E-------------------------|-------------------------|
B---5---5--5--------------|-------------------------|
G---4---4--4---5---5--5---|--------------2---2--2---|
D---2---2--2---5---5--5---|---5---5--5---2---2--2---|
A--------------3---3--3---|---5---5--5---0---0--0---|
E-------------------------|---3---3--3--------------|
  now all the way down here I'm falling all the way

E-------------------------|-------------------------|
B---5---5--5--------------|-------------------------|
G---4---4--4---5---5--5---|--------------2---2--2---|
D---2---2--2---5---5--5---|---5---5--5---2---2--2---|
A--------------3---3--3---|---5---5--5---0---0--0---|
E-------------------------|---3---3--3--------------|
      all the way down here I'm falling now

E-------------------------|-------------------------|
B-----5--3--5-------------|-----5--3--5-------------|
G-----4--2--4---5--4------|-----4--2--4---5--4------|
D-----2--0--2---5--4------|-----2--0--2---5--4------|
A---------------3--2------|---------------3--2------|
E-------------------------|-------------------------|
         again now              I'm falling down

E-------------------------|-------------------------|
B-----5--3--5-------------|-----5--3--5-------------|
G-----4--2--4---5--4------|-----4--2--4---5--4------|
D-----2--0--2---5--4------|-----2--0--2---5--4------|
A---------------3--2------|---------------3--2------|
E-------------------------|-------------------------|
      I'm falling down         I'm falling down

E-------------------------|-------------------------|
B-----5----7----7----8----|-------------------------|
G-----4----6----6----7----|-------------5-----------|
D-----2----4----4----5----|-------------5-----------|
A-------------------------|-------------3-----------|
E-------------------------|-------------------------|
             I'm going down in flames

E-------------------------|-------------------------|
B-------------------------|------------3------------|
G-------------------------|------------2------------|
D------------5------------|------------0------------|
A------------5------------|-------------------------|
E------------3------------|-------------------------|
         I'm falling into this again... yeah

E-------------------------|-------------------------|
B-----5----7----7----8----|-------------------------|
G-----4----6----6----7----|-------------5-----------|
D-----2----4----4----5----|-------------5-----------|
A-------------------------|-------------3-----------|
E-------------------------|-------------------------|
              I'm going down in flames

E-------------------------|-------------------------|
B-------------------------|------------3------------|
G-------------------------|------------2------------|
D------------5------------|------------0------------|
A------------5------------|-------------------------|
E------------3------------|-------------------------|
             I'm falling into this again

E-------------------------|-------------------------|
B---5---5--5--------------|-------------------------|
G---4---4--4---5---5--5---|--------------2---2--2---|
D---2---2--2---5---5--5---|---5---5--5---2---2--2---|
A--------------3---3--3---|---5---5--5---0---0--0---|
E-------------------------|---3---3--3--------------|
  now all the way down here I'm falling all the way

E-------------------------|-------------------------|
B---5---5--5--------------|-------------------------|
G---4---4--4---5---5--5---|--------------2---2--2---|
D---2---2--2---5---5--5---|---5---5--5---2---2--2---|
A--------------3---3--3---|---5---5--5---0---0--0---|
E-------------------------|---3---3--3--------------|
      all the way down here I'm falling again now

E-------------------------|-------------------------|
B---5---5--5--------------|-------------------------|
G---4---4--4---5---5--5---|----------2--------------|
D---2---2--2---5---5--5---|---5------2------2-------|
A--------------3---3--3---|---5------0------2-------|
E-------------------------|---3-------------0-------|
                   I'm falling down
comments
We did not receive enough feedback on this tab! Please rate:
print report bad tab
1 2 3 4 5
I want to post or [tab]
guest
You may want to rate the tab now too:
select rating
Please do not post tabs as comments. Select "correction" instead!