Oops, an error
Loading. Please wait.

Going Down In Flames Tab

version 4
version 4
8,517 views 1 this week
7 commentsread comments
1 2 3 4 5
accurate
x 14
add to favorites
launch autoscroll
font size
0
reset
how to read this tab
guitar tuner
Autoscroll
slow
fast
+/-
esc
set tempo
stop
Help us to improve Ultimate-Guitar.com Take our survey!
×
Author
  
--------------------------------------------------------------------------
                        Going Down In Flames - 3 Doors Down
--------------------------------------------------------------------------
Tabbed by: sonofguido
Email: sonofguido@hotmail.com

Tuning: Standard

/=slide
r=ring

Intro:
    E  F# G  C  F# G        E  F# G  C  G  F#
e|------------------------------------------------------|
B|------------------------------------------------------|
G|-----------5-----------------------5------------------|
D|--2--4--5--5--4--5--------2--4--5--5--5--4------------|
A|--2--4--5--3--4--5--------2--4--5--3--5--4------------|
E|--0--2--3-----2--3--------0--2--3-----3--2------------|

(Intro Continued)
    E  F# G  C  F# G        E  F# G  C  G  F#
e|------------------------------------------------------|
B|------------------------------------------------------|
G|-----------5-----------------------5--4--2------------|
D|--2--4--5--5--4--5--------2--4--5--5--4--2------------|
A|--2--4--5--3--4--5--------2--4--5--3--2--0------------|
E|--0--2--3-----2--3--------0--2--3---------------------|

Verse:
     B     C     G     D
E|--------------------------------|
B|--------------------------------|  
G|--4--4--5--5--------7--7--------|   2X
D|--4--4--5--5--5--5--7--7--------|
A|--2--2--3--3--5--5--5--5--------|
E|--------------3--3--------------|

Pre-chorus: Strum each chord from Verse once starting at "Cacth me when 
            I Fall..."  2X

    E        F#  F#/G   C                       G        D
e|----------------------------------------------------------|
B|----------------------------------------------------------|
G|----------------------5r-------------------------------7--|
D|--2------4---4--4/5---5r----------------------5r-------7--|    2X
A|--2------4---4--4/5---3r----------------------5r-------5--|
E|--0------2---2--2/3---------------------------3r----------|
  "I'm going down  in  flames, I'm falling into this... Again!"  

Play Again the, 
  Intro
  Verse 
  Pre-chorus
  Chorus

             
    B    C      G      D
e|---------------------------------------------------------|
B|---------------------------------Listen to the song------|
G|-4--4--5--5---------7--7-------for when to strum chords--|  2X
D|-4--4--5--5--5--5---7--7---------------------------------|
A|-2--2--3--3--5--5---5--5---------------------------------|
E|-------------3--3----------------------------------------|
   "Now, I'm all the way down here I'm falling."

     B    G     E     G/B
e|---------------------------------------------------------|
B|---------------------------------Listen to the song------|
G|-4------------------5/4--------for when to strum chords--|  4X
D|-4------5-----2-----5/4----------------------------------|
A|-2------5-----2-----3/2----------------------------------|
E|--------3-----0------------------------------------------|
   "Again..."  (song goes lot slower)

Play Chorus Again!
then,
     B    C     G      D
e|---------------------------------------------------------|
B|---------------------------------------------------------|
G|-4--4--5--5---------7--7---------------------------------|  3X
D|-4--4--5--5--5--5---7--7---------------------------------|
A|-2--2--3--3--5--5---5--5---------------------------------|
E|-------------3--3----------------------------------------|
   "Now, I'm all the way down here I'm falling."

Ending song on E 

               
That's it.  Hope you enjoy!  Comments or corrections, feel free to email!  SOG
Suggest correction
What's this?
You can suggest a correction to this tab. Community and Mods will review your correction and vote to approve or reject it.
comments
print report bad tab
7 comments total. Showing first comments.
-1 reply
pill2comawhite 31 wrote on November 22 2003, 12:00 am

not correct at all, look for my version of this song, coming soon

+3 reply
AznBeast 14 wrote on August 23 2007, 06:37 am

what do you mean?
this tab is very good.
love it.
good work.
keep it up.

0 reply
Radicall 19 wrote on September 17 2007, 09:37 am

yea I don't see how this is so accurate, might put a tab in aswell.

guest
You may want to rate the tab now too:
select rating
Please do not post tabs as comments. Select "correction" instead!