Oops, an error
Loading. Please wait.

Going Down In Flames Tab

version 6
version 6
7,184 views 3 this week
2 commentsread comments
1 2 3 4 5
excellent!
x 9
add to favorites
launch autoscroll
font size
0
reset
how to read this tab
guitar tuner
Autoscroll
slow
fast
+/-
esc
set tempo
stop
Help us to improve Ultimate-Guitar.com Take our survey!
×
Author
-------------------------------------------------------------------------------
                     Going Down In Flames – 3 Doors Down
-------------------------------------------------------------------------------

Intro:
e|----------------------------------------------------------|
B|----------------------------------------------------------|
G|--9---11--12-----7---11--12-----9---11---12---------------|
D|--9---11--12-----7---11--12-----9---11---12---10---9---7--|
A|--7---9---10-----5---9---10-----7---9----10---10---9---7--|
E|--7---9---10-----5---9---10-----7---9----10---8----7---5--|

e|-----------------------------------------------------------|
B|-----------------------------------------------------------|
G|--9---11--12-----7---11--12-----9---11---12----------------|
D|--9---11--12-----7---11--12-----9---11---12---12---10---9--|
A|--7---9---10-----5---9---10-----7---9----10---12---10---9--|
E|--7---9---10-----5---9---10-----7---9----10---10---8----7--|

Verse:
e|-----------------------------------------------------|
B|-----------------------------------------------------|
G|--9---x---9--------------------------------7---x--7--|
D|--9---x---9----10---x---10----5---x---5----7---x--7--|
A|--7---x---7----10---x---10----5---x---5----5---x--5--| 
E|--7---x---7----8----x---8-----3---x---3--------------|

Pre Chorus:
e|---------------------|
B|---------------------|
G|--9---------------7--|
D|--9----10----5----7--|
A|--7----10----5----5--| 
E|--7----8-----3-------|

Chorus:
e|--------------------------------------------------|
B|--------------------------------------------------|
G|--9-9-9-9-11-11-11-11-12-12-12-12--------------7--|
D|----------------------------------10-----5-----7--|
A|----------------------------------10-----5-----5--| 
E|----------------------------------8------3--------|

Interlude:
e|----------------------------------------------------|
B|----------------------------------------------------|
G|--9------------------7----9-------------------------|
D|--9-----------------------9------------10---9---10--|
A|--7---7h9-10—9-7-5--------7---7h9-10---10---9---10--|
E|---------------------------------------8----7---8---|

e|----------------------------------------------------|
B|----------------------------------------------------|
G|--9------------------7----9-------------------------|
D|--9-----------------------9------------10---9---7---|
A|--7---7h9-10—9-7-5--------7---7h9-10---10---9---7---|
E|---------------------------------------8----7---5---|






e|----------------------------------------------------|
B|----------------------------------------------------|
G|--9------------------7----9-------------------------|
D|--9-----------------------9------------10---9---10--|
A|--7---7h9-10—9-7-5--------7---7h9-10---10---9---10--|
E|---------------------------------------8----7---8---|

e|----------------------------------------------------|
B|----------------------------------------------------|
G|--9------------------7----9-------------------------|
D|--9-----------------------9------------9---9---10---|
A|--7---7h9-10—9-7-5--------7---7h9-10---9---9---10---|
E|---------------------------------------7---7---8----|

Outro:
e|--------------------------------------------|
B|--------------------------------------------|
G|--9---x---9------------------------7----9---|
D|--9---x---9----10---x---10----5----7----9---|
A|--7---x---7----10---x---10----5----5----7---| 
E|--7---x---7----8----x---8-----3---------7---|





Order:
Intro x1
Verse x2
Pre Chorus x2
Chorus x2
Intro x1
Verse x2
Pre Chorus x2
Chorus x2
Verse x2
Interlude x1
Chorus x2
Verse x2
Outro x1
Suggest correction
comments
print report bad tab
2 comments total.
+1 reply
(BNDR) 46 wrote on July 15 2009, 01:35 pm

nice. except the corus, those single notes need to be played with a lower octive

0 reply
segees 10 wrote on July 1 2010, 11:18 am

nice work but the first part of the intro isnt right its more like 7-5-5 12-10-10 11-9-9 instead 10-10-8 9-9-7 7-7-5

guest
You may want to rate the tab now too:
select rating
Please do not post tabs as comments. Select "correction" instead!