Oops, an error
Loading. Please wait.

Heaven Tab

version 1
version 1

Whole song

Interactive

6,558 views 12 this week
no commentswrite comment
1 2 3 4 5
excellent!
x 5
add to favorites
launch autoscroll
font size
0
reset
how to read this tab
guitar tuner
Autoscroll
slow
fast
+/-
esc
set tempo
stop
Help us to improve Ultimate-Guitar.com Take our survey!
×
Author
Difficulty
intermediate
Tabbed by: Kyle Casey
Email: eracman920@gmail.com
Tabbed: Jan. 2012
Tuning: STANDARD

This is 100% correct. This one would actually be in Half-step Standard, but this is actually played like this live.

INTRO:
Guitar 1
E---------------------------4-1----------------------------------------|
B---1h2---1------1h2h1--1--------------1h2---1------1h2h1-----4/6---4~-|
G-------------3-----------1----------------------3---------------------|
D----------------------------------------------------------------------|
A----------------------------------------------------------------------|
E----------------------------------------------------------4-----------|

Guitar 2 (Chords)
E----------------------------------------------------------------------|
B-----------------------1-------------------------------------------1--|
G-----------------------1----------------------------------3--------1--|
D-----------------------1----------------------------------4--------1--|
A----------------------------------------------------------4-----------|
E----------------------------------------------------------------------|


VERSE:
E---------------------------4-1----------------------------------------|
B---1h2---1------1h2h1--1--------------1h2---1------1h2h1-----4/6---4--|
G-------------3-----------1----------------------3---------------------|
D----------------------------------------------------------------------|
A----------------------------------------------------------------------|
E----------------------------------------------------------4-----------|
 I got lost out there in this world ,
 Looking for a brand new way to fall down

E---------------------------4-1----------------------------------------|
B---1h2---1------1h2h1----1--------------------------------------------|
G-------------3---------1------------------1h3---1-----------5---------|
D----------------------------------------4-----------------6-----------|
A--------------------------------------4-----------------6-------------|
E------------------------------------2-----------------4---------------|
 It's no surprise that things have gotten worse
 And I think God he'd never let me drown| But I didn't have to-


CHORUS:
E-----------------------------------------------|
B-----------------------------------------------|
G-6-6-6-6-6-6-6-6-------------------------------|
D-6-6-6-6-6-6-6-6---------6-6-6-6-6-6-6-6-------|
A-4-4-4-4-4-4-4-4---------6-6-6-6-6-6-6-6-------|
E-------------------------4-4-4-4-4-4-4-4-------|
 -Lie to myself for so long| I didn't have to-

E-----------------------------------------------|
B-----------------------------------------------|
G-----------------------------------------------|
D-8-8-8-8-8-8-8-8--------6-6-6-6-6-6-6-6--------|
A-8-8-8-8-8-8-8-8--------6-6-6-6-6-6-6-6--------|
E-6-6-6-6-6-6-6-6--------4-4-4-4-4-4-4-4--------|
 -Let myself get so far gone| I didn't have to-

E------------------------------------------------------|
B------------------------------------------------------|
G-6-6-6-6-6-6-6-6--------------------------------------|
D-6-6-6-6-6-6-6-6----------------6-6-6-6-6-6-6-6-------|
A-4-4-4-4-4-4-4-4----------------6-6-6-6-6-6-6-6-------|
E--------------------------------4-4-4-4-4-4-4-4-------|
 -Make the one's I love feel so alone| I didn't have to-


E-------------------------------------------|
B-------------------------------------------|
G-------------------------------------------|
D-4-4-4-4-4-4-4-4----6-6-6-6-6-6-6-6--------|
A-4-4-4-4-4-4-4-4----6-6-6-6-6-6-6-6--------|
E-2-2-2-2-2-2-2-2----4-4-4-4-4-4-4-4--------|
 -Die to go to heaven| I just had to go home


E------------------------4-1-------|
B--1h2---1-----1h2---1-------------|
G------------3---------1-----------|
D----------------------------------|
A----------------------------------|
E----------------------------------|


VERSE:
E--------------------------4-1-----------------------------------------|
B---1h2---1------1h2---1---------4-----1h2---1------1h2-----4/6---4~---|
G------------------------1---------------------------------------------|
D----------------------------------------------------------------------|
A----------------------------------------------------------------------|
E----------------------------------------------------------------------|
 While I was having the time of my life
 I think my soul died a little everyday


E-------------------------4-1----------------------------------------|
B---1h2---1------1h2--1----------------------------------------------|
G-----------------------1---------------1h3---1---------5------------|
D-------------------------------------4---------------6--------------|
A-----------------------------------4---------------6----------------|
E---------------------------------2---------------4------------------|
 I always called to say I'm sorry but you should be
 Through it all, you never walked away. But I didn't have to-


CHORUS:
E-----------------------------------------------|
B-----------------------------------------------|
G-6-6-6-6-6-6-6-6-------------------------------|
D-6-6-6-6-6-6-6-6---------6-6-6-6-6-6-6-6-------|
A-4-4-4-4-4-4-4-4---------6-6-6-6-6-6-6-6-------|
E-------------------------4-4-4-4-4-4-4-4-------|
 -Lie to myself for so long| I didn't have to-

E-----------------------------------------------|
B-----------------------------------------------|
G-----------------------------------------------|
D-8-8-8-8-8-8-8-8--------6-6-6-6-6-6-6-6--------|
A-8-8-8-8-8-8-8-8--------6-6-6-6-6-6-6-6--------|
E-6-6-6-6-6-6-6-6--------4-4-4-4-4-4-4-4--------|
 -Let myself get so far gone| I didn't have to-

E-------------------------------------------------------|
B-------------------------------------------------------|
G-6-6-6-6-6-6-6-6---------------------------------------|
D-6-6-6-6-6-6-6-6----------------6-6-6-6-6-6-6-6--------|
A-4-4-4-4-4-4-4-4----------------6-6-6-6-6-6-6-6--------|
E--------------------------------4-4-4-4-4-4-4-4--------|
 -Make the one's I love feel so alone| I didn't have to-


E---------------------------------------|
B---------------------------------------|
G---------------------------------------|
D-4-4-4-4-4-4-4-4----6-6-6-6-6-6-6-6----|
A-4-4-4-4-4-4-4-4----6-6-6-6-6-6-6-6----|
E-2-2-2-2-2-2-2-2----4-4-4-4-4-4-4-4----|
 -Die to go to heaven| I just had to go-


BRIDGE:
E---------------------------------------|
B---------------------------------------|
G---------------------------------------|
D-4-4-4-4-4-4-4-4----6-6-6-6-6-6-6-6----|
A-4-4-4-4-4-4-4-4----6-6-6-6-6-6-6-6----|
E-2-2-2-2-2-2-2-2----4-4-4-4-4-4-4-4----|
 -Home into the arms of my angel


E------------------------------------------|
B------------------------------------------|
G------------------------------------------|
D-4-4-4-4-4-4-4-4--8-8-8-8--6-6-6-6-6-6----|
A-4-4-4-4-4-4-4-4--8-8-8-8--6-6-6-6-6-6----|
E-2-2-2-2-2-2-2-2--6-6-6-6--4-4-4-4-4-4----|
 -Into the peace I've left behind

E---------------------------------------------|
B---------------------------------------------|
G---------------------------------------------|
D-4-4-4-4-4-4-4-4----6-6-6-6-6-6-6-6----------|
A-4-4-4-4-4-4-4-4----6-6-6-6-6-6-6-6----------|
E-2-2-2-2-2-2-2-2----4-4-4-4-4-4-4-4----------|
  All I had to do to save my own life, was to-

E-------------------------------------------|
B-------------------------------------------|
G-------------------------------------------|
D-4-4-4-4-4-4-4-4---6-6-6-6-6-6-6-6---------|
A-4-4-4-4-4-4-4-4---6-6-6-6-6-6-6-6---------|
E-2-2-2-2-2-2-2-2---4-4-4-4-4-4-4-4---------|
  Look into your eyes. But I didn't have to-


CHORUS:
E---------------------------------------------|
B-----4-2---4-2-------------------------------|
G---------1-----1---------------5-------------|
D---2-------------------------6---------------|
A-3-------------------------6-----------------|
E-------------------------4-------------------|
 -Lie to myself for so long. I didn't have to-

E-----------------------------------------------|
B-----------------------------------------------|
G-----------------------------------------------|
D-8-8-8-8-8-8-8-8--------6-6-6-6-6-6-6-6--------|
A-8-8-8-8-8-8-8-8--------6-6-6-6-6-6-6-6--------|
E-6-6-6-6-6-6-6-6--------4-4-4-4-4-4-4-4--------|
 -Let myself get so far gone| I didn't have to-

E-------------------------------------------------------|
B-------------------------------------------------------|
G-6-6-6-6-6-6-6-6---------------------------------------|
D-6-6-6-6-6-6-6-6----------------6-6-6-6-6-6-6-6--------|
A-4-4-4-4-4-4-4-4----------------6-6-6-6-6-6-6-6--------|
E--------------------------------4-4-4-4-4-4-4-4--------|
 -Make the one's I love feel so alone| I didn't have to-


E-------------------------------------------|
B-------------------------------------------|
G-------------------------------------------|
D-4-4-4-4-4-4-4-4----6-6-6-6-6-6-6-6--------|
A-4-4-4-4-4-4-4-4----6-6-6-6-6-6-6-6--------|
E-2-2-2-2-2-2-2-2----4-4-4-4-4-4-4-4--------|
 -Die to go to heaven| But I didn't have to-

E---------------------------------------------|
B---------------------------------------------|
G-6-6-6-6-6-6-6-6-----------------------------|
D-6-6-6-6-6-6-6-6---------6-6-6-6-6-6-6-6-----|
A-4-4-4-4-4-4-4-4---------6-6-6-6-6-6-6-6-----|
E-------------------------4-4-4-4-4-4-4-4-----|
 -Lie to myself for so long| I just had to go-


E----------------------------------------|
B----------------------------------------|
G----------------------------------------|
D-4-4-4-4-4-4-4-4----6-6-6-6-6-6-6-6-----|
A-4-4-4-4-4-4-4-4----6-6-6-6-6-6-6-6-----|
E-2-2-2-2-2-2-2-2----4-4-4-4-4-4-4-4-----|
 -Home (Just had to go home) I had to go-


E------|
B------|
G--6---|
D--6---|
A--4---|
E------|
 -Home!


THANK YOU VERY MUCH!


Keys:

h= hammer-on
/ = slide
~ = vibrato
Suggest correction
comments
print report bad tab
guest
You may want to rate the tab now too:
select rating
Please do not post tabs as comments. Select "correction" instead!