Oops, an error
Loading. Please wait.

Here By Me Tab

version 1
version 1

Intro

Whole song

Interactive

20,269 views 1 this week
3 commentsread comments
1 2 3 4 5
x 5
add to favorites
launch autoscroll
font size
0
reset
how to read this tab
guitar tuner
Autoscroll
slow
fast
+/-
esc
set tempo
stop
Help us to improve Ultimate-Guitar.com Take our survey!
×
Author
Here By Me
3 Doors Down
Seventeen Days
Tabbed by: Josh T.
Tuning: standard
I've played this and it sounds 100% right.
This part is also played many times throughout the song.

Intro (finger picking)
e|-------------------------------|
B|--0-----0--------0-----0-------|
G|----0------0-------0------0----| x2
D|------0------0-------2------2--| 
A|---------------0-3-------------|
E|--3----------------------------|


===========================================================
Suggest correction
comments
print report bad tab
3 comments total.
0 reply
stuartbartley 21 May 15, 2007 05:51 PM

close but i think its this

e|--------------------------------|
B|--0-----0------0-0-----0------0-|
G|----0------0-------0------0-----| x2
D|------0------0-------2------2---|
A|-----------------3--------------|
E|--3-----------------------------|

0 reply
Markman2 15 Nov 30, 2007 08:52 PM

The tab is exactly right as is:


e|-------------------------------|
B|--0-----0--------0-----0-------|
G|----0------0-------0------0----|
x2
D|------0------0-------2------2--|
A|---------------0-3-------------|
E|--3----------------------------|

If
you listen close to the song you can hear the A string 0 and there is no 0 at the end on the B string.

0 reply
Markman2 15 Nov 30, 2007 08:52 PM

The tab is exactly right as is:


e|-------------------------------|
B|--0-----0--------0-----0-------|
G|----0------0-------0------0----|
x2
D|------0------0-------2------2--|
A|---------------0-3-------------|
E|--3----------------------------|

If
you listen close to the song you can hear the A string 0 and there is no 0 at the end on the B string.

guest
You may want to rate the tab now too:
select rating
Wanna post a correction for this tab? Suggest correction