Oops, an error
Loading. Please wait.
We have an official Here Without You tab made by UG professional guitarists. Check out the tab »
×

Here Without You chords

208 views 12 this week
no commentswrite comment
1 2 3 4 5
1 last vote to show rating
add to favorites
×
Save as Personal and add changes to this tab that will be seen only by you. Learn more ›
×
You can save this tab as Personal to edit and correct it or add notes. All changes will be seen only by you. Learn more »
launch autoscroll
font size
0
reset
transpose
0
reset
simplify chords
display chords
guitar tuner
backing track
0:00
0:00
edit
Autoscroll
slow
fast
+/-
esc
set tempo
stop
About this tab version
This version is different due to a few chords being changed around from other versions you may find. Most notably, the F chord has been switched to an Fmaj7. Also, several different riffs have been written out for ease of use. This tab was designed to be relatively easy but still retain the quality sound of the actual song. Was this info helpful? Yes No
Strumming
There is no strumming pattern for this song yet. and get +5 IQ
--------------------------------------------------------------------------------------------------------------
Here Without You - 3 Doors Down

https://www.youtube.com/watch?v=kPBzTxZQG5Q

*Note: This is my first tab actually transcribing a full song, the rest of my stuff is just kinda theme song
tabs and stuff like that so I hope I can help at least one person with this. I've simplified the 3 Doors Down
song for rookies like me to play easier and hopefully one day graduate to the bigger and more complex stuff.
Good luck and enjoy! :)
--------------------------------------------------------------------------------------------------------------

..:: CAPO 1 ::..

Riff 1/Intro Riff: (Hold Am to start off)

         Am                 Fmaj7             G
E-----------------------|----------------3-------3--3-3-3----------------------------------------------------o
B----------1----------1-|--1----1-1--------------------------------------------------------------------------o
G--------2-----2----2---|--2----2-2--------------------------(Strum Am instead of the open A)----------------o
D-------2-----2---------|--3----3-3--------------------------------------------------------------------------o
A---0-------------0-----|----------------2-------2--2-2-2----------------------------------------------------o
E-----------------------|----------------3-------3--3-3-3----------------------------------------------------o
                                ^^                 ^ Have a one-second pause between these two G's
                  These two Fmaj7's should be 
                          played fast

Riff 2: (Played throughout song, only uses Am)

"But you're still with me in my dreams..."  ***(Hit the 3 with your pinky on the Am chord)***

E--------------------|---------------------------------------------------------------------------------------o
B----1---1-3-1--1-3--|---------------------------------------------------------------------------------------o
G----2---2-2-2--2-2--|---------------------------------------------------------------------------------------o
D----2---2-2-2--2-2--|---------------------------------------------------------------------------------------o
A--------------------|---------------------------------------------------------------------------------------o
E--------------------|---------------------------------------------------------------------------------------o

**************************************************************************************************************
**************************************************************************************************************



[Intro]

Am                 Fmaj7             G
E-----------------------|----------------3-------3--3-3-3---------------------------------------------------o
B----------1----------1-|--1----1-1-------------------------------------------------------------------------o
G--------2-----2----2---|--2----2-2--------------------------(Strum Am instead of the open A)---------------o
D-------2-----2---------|--3----3-3-------------------------------------------------------------------------o 
A---0-------------0-----|----------------2-------2--2-2-2---------------------------------------------------o
E-----------------------|----------------3-------3--3-3-3---------------------------------------------------o


[Verse 1]

          Am
A hundred days have made me older
          G                                Am Riff1
Since the last time that I saw your pretty face
           Am
A thousand lies have made me colder
      G                                  Am Riff1
And I don't think I can look at this the same
Am                          G
But all the miles that seperate
Am                           Fmaj7              G
They dissapear now, when I'm dreaming of your face

****(Strum G a few times before you go into the chorus)****

[Chorus]

C                           G
I'm here without you, baby
                               Am
But you're still on my lonely mind
                         Fmaj7        G                  C
I think about you, baby, and I dream about you all the time
                            G
I'm here without you, baby
G                              Am       Riff2
But you're still with me in my dreams
      Fmaj7   G                    Am   G   Riff2 
And tonight, there's only you and me, yeah

**(Strum Fmaj7 4 times quick, then Fmaj7 and G quick)**
E--------------------3--------3---3-3-3-3--------------------------------------------------------------------o
B------1-1-1-1----1------------------------------------------------------------------------------------------o
G------2-2-2-2----2------------------------------------------------------------------------------------------o
D------3-3-3-3----3------------------------------------------------------------------------------------------o
A--------------------2--------2---2-2-2-2--------------------------------------------------------------------o
E--------------------3--------3---3-3-3-3--------------------------------------------------------------------o

[Verse 2]

    Am
The miles just keep rollin'
       G                                Am Riff1
As the people leave their way to say hello
                Am
I've heard this life is overrated
      G                              Am Riff1
But I hope that it gets better as we go, ohh yeah yeah

[Chorus]

C                           G
I'm here without you, baby
                               Am
But you're still on my lonely mind
                         Fmaj7        G                  C
I think about you, baby, and I dream about you all the time
                            G
I'm here without you, baby
G                                 Am Riff2
But you're still with me in my dreams
      Fmaj7   G                    Am   G  
And tonight, there's only you and meeee-

[Bridge] 
Am                 C                   G
Everything I know, and everywhere I go-oh
G                         Fmaj7
It gets hard but it won't take away my love
Am                           C                          G
And when the last one falls, and when it's all said and done
G                          Fmaj7
It gets hard, but it won't take away my love, 

Fmaj7       C            G       Am    
Whooooaaohoooohooooooh-oh-oh-oohhhhhhhhhh 

E--------------------|------------------3-3-3--3---3---------------------------------------------------------o
B----1---1-3-1--1-3--|------1--1--1---1--------------1-------------------------------------------------------o
G----2---2-2-2--2-2--|------2--2--2---2--------------2-------------------------------------------------------o
D----2---2-2-2--2-2--|------3--3--3---3--------------2-------------------------------------------------------o
A--------------------|------------------2-2-2--2---2---------------------------------------------------------o
E--------------------|------------------3-3-3--3---3---------------------------------------------------------o

[Chorus]  

C                           G
I'm here without you, baby
                              Am
But you're still on my lonely mind
                         Fmaj7       G                  C
I think about you, baby, and I dream about you all the time
C                           G
I'm here without you, baby
G                               Am Riff2
But you're still with me in my dreams
    Fmaj7          G                    C           G        Am Riff2
And tonight, girl, there's only you and meeeeeee, yeahhhhhh, ohh yeah
Fmaj7 G     
Ohhh, 
Am
I'm alone

--------------------------------------------------------------------------------------------------------------

Suggest correction
Creating personal tab
Creating personal tab
You can edit any tab online and save it as your Personal.

You can edit, replace or remove any tab part or add personal notes – all changes will be seen only by you.

Personal tabs can be accessed anytime from any device, even offline.
Learn more »
Give kudos to tab author, rate the tab!
1 2 3 4 5
comments
print report bad tab
guest
You may want to rate the tab now too:
select rating
Wanna post a correction for this tab? Suggest correction