Oops, an error
Loading. Please wait.

Here Without You Tab

version 2
version 2
170,306 views 21 this week
10 commentsread comments
1 2 3 4 5
x 40
add to favorites
launch autoscroll
font size
0
reset
how to read this tab
guitar tuner
Autoscroll
slow
fast
+/-
esc
set tempo
stop
Help us to improve Ultimate-Guitar.com Take our survey!
×
Author
Tabbed by: David Jackson
Email: adidas2684@hotmail.com
Corrected by:  Matt K. (tenacity)
Email: herbteabags@hotmail.com

I took david's tab which was the most accurate that I could find and corrected 
a spot on Riff 1.  Also For the chorus and Bridge the first guitar part has 
a picking pattern to the chords that the second and guitar and the violin 
play to,  Mess around with it for a wihle and you'll get it.

Tuning: Standard tuning.
You can play this with capo on first fret, or if your fingers are strong enough
you can just bar everything. Its not too hard to bar everything, but capo just
makes things easier.

			This is tabbed with capo.
		To play w/o capo, just move up a fret.
(meaning if you play a string open w/ capo, play that string on first fret w/o
capo) 

Guitar 1

Riff 1
e|---------------------------------------------------------------------------|
B|-------1-----0-----0---1--------------------------------0------------------|
G|-----2---2-----2-----2---2-------------2------------0-----0----------------|
D|---2-------2-----2---------2---------3---3-------0----0-----0--------------|
A|-0---------------------------0-----3-------3--2----------------------------|
E|---------------------------------1------------3----------------------------|

Riff 2
e|---------------------------------------------------------------------------|
B|-------1-----0-----0---1--------------0-----1-----0-----1/3----------------|
G|-----2---2-----2-----2---2----------0----0-----0-----0---------------------|
D|---2-------2-----2---------2------0----------------------------------------|
A|-0---------------------------0---------------------------------------------|
E|--------------------------------3------------------------------------------|

These are the riffs for the Intro and Verse's. The first Chorus is a variation
of these riffs, though I don't know it. The second Chorus I believe is yet
another variation of these riffs which is played over Guitar 2 (also don't know,
sadly enough).

Guitar 2 - Doesn't play much. Just the chords in the chorus. In the first chorus,
Guitar 2 doesn't play.
Since not everyone has a violin or someone to play it, Guitar 2 can just play
these chords where the violins would be.

	C	G	Am	F
e|------3-------3-------0-------1--------------------------------------------|
B|------3-------3-------1-------1--------------------------------------------|
G|------5-------4-------2-------2--------------------------------------------|
D|------5-------5-------2-------3--------------------------------------------|
A|------3-------5-------0-------3--------------------------------------------|
E|------3-------3---------------1--------------------------------------------|


Chorus:

C                          G                      
I'm here without you baby, but your still on my lonely mind
Am                      F		 G
I think about you baby, and I dream about you all the time
C                           G                                  Am
I’m here without you baby, but your still with me in my dreams
 F           G                 
And tonight it’s only you and me


Bridge:

Am                  C
Everything I know, and anywhere I go 
G                         F
it gets hard but it won’t take away my love
Am                           C
And when the last one falls, when it’s all said and done
G                 F                                 C    G Am   F   G
it get hard but it won’t take away my love


Chorus:

C                          G                      
I'm here without you baby, but your still on my lonely mind
Am                      F		 G
I think about you baby, and I dream about you all the time
C                           G                                  Am
I’m here without you baby, but your still with me in my dreams
 F           G                 C     G   Am F  G
And tonight it’s only you and me



Everything shown here can be played on one guitar easily. 
There are a few other riffs which I haven't tabbed out yet that would
require a second guitar. But as for now this is all I can provide.

Questions & Comments send to adidas2684@hotmail.com with subject related
to these tabs, just so I don't delete it thinking its junk :)

| /  slide up
| \  slide down
| h  hammer-on
| p  pull-off
| ~  vibrato
| +  harmonic
| x  Mute note
Suggest correction
comments
print report bad tab
10 comments total. Showing first comments.
0 reply
Listen_to_cold 50 Oct 09, 2003 12:00 AM

version 1 and version 2 r exaclty the same (i think) but this song is really good, i mite post the full version later

0 reply
TiMaRmStRoNg101 30 Nov 19, 2003 12:00 AM

yes, i think its just a copy because he wrote everything correctly and they both forgot the first verse!

0 reply
DanSumthing 221 Aug 13, 2004 12:00 AM

One tiny thing here: It doesn't quite get up to the
A# (the 2 on the G string) in the opening riff.
Here's how it goes:
e|---------------------------------------------------------------|
B|-------1-----0-----0---1-------------------------------0-------|
G|-----2---2-----2-----2---2-------------------------0------0----|
D|---2-------2-----2---------2-----------3---------0---0------0--|
A|-0---------------------------0-----0-3---3-0--5----------------|
E|---------------------------------1------------3----------------|
{changed stuff}

guest
You may want to rate the tab now too:
select rating
Wanna post a correction for this tab? Suggest correction