Oops, an error
Loading. Please wait.

Here Without You Tab

version 6
version 6
30,103 views 3 this week
1 commentread comment
1 2 3 4 5
not so good
x 8
add to favorites
launch autoscroll
font size
0
reset
how to read this tab
guitar tuner
Tab Pro tools
  • play this tab
  • loop segment
  • change instrument
  • show fretboard
  • metronome
×
Best way to learn
"Here Without You"
Autoscroll
slow
fast
+/-
esc
set tempo
stop
Contributor
Here Without You Tab by 3 Doors Down, www.Ultimate-Guitar.Com

-------------------------------------------------------------------------------
		    Here With Out You - 3 Doors Down WITH OUT CAPO VERSION
------------------------------------------------------------------------------

Tabbed by: Filip Bajson & David Jackson
Email: 

Tuning: Standard tuning.
			

Guitar 1

Riff 1
e|---------------------------------------------------------------------------|
B|-------2-----1-----1---2--------------3---------------1--------------------|
G|-----3---3-----3-----3---3----------4---4---------1-----1------------------|
D|---3-------3-----3---------3------4-------4-----1---1-----1----------------|
A|-1---------------------------1--2------------3-----------------------------|
E|--------------------------------------------- 4-----------------------------|

Riff 2
e|---------------------------------------------------------------------------|
B|-------2-----1-----1---2--------------1-----2-----1-----2/4----------------|
G|-----3---3-----3-----3---3----------1----1-----1-----1---------------------|
D|---3-------3-----3---------3------1----------------------------------------|
A|-1---------------------------1---------------------------------------------|
E|--------------------------------4------------------------------------------|

These are the riffs for the Intro and Verse's. The first Chorus is a variation
of these riffs, though I don't know it. The second Chorus I believe is yet
another variation of these riffs which is played over Guitar 2 (also don't know,
sadly enough).

Guitar 2 - Doesn't play much. Just the chords in the chorus. In the first chorus,
Guitar 2 doesn't play.
Since not everyone has a violin or someone to play it, Guitar 2 can just play
these chords where the violins would be.

	C	G	Am	F
e|------3-------3-------0-------1--------------------------------------------|
B|------3-------3-------1-------1--------------------------------------------|
G|------5-------4-------2-------2--------------------------------------------|
D|------5-------5-------2-------3--------------------------------------------|
A|------3-------5-------0-------3--------------------------------------------|
E|------3-------3---------------1--------------------------------------------|


Chorus:

C                          G                      
I'm here without you baby, but your still on my lonely mind
Am                      F		 G
I think about you baby, and I dream about you all the time
C                           G                                  Am
I'm here without you baby, but your still with me in my dreams
 F           G                 
And tonight it's only you and me


Bridge:

Am                  C
Everything I know, and anywhere I go 
G                         F
it gets hard but it won't take away my love
Am                           C
And when the last one falls, when it's all said and done
G                 F                                 C    G Am   F   G
it get hard but it won't take away my love


Chorus:

C                          G                      
I'm here without you baby, but your still on my lonely mind
Am                      F		 G
I think about you baby, and I dream about you all the time
C                           G                                  Am
I'm here without you baby, but your still with me in my dreams
 F           G                 C     G   Am F  G
And tonight it's only you and me



Everything shown here can be played on one guitar easily. 
There are a few other riffs which I haven't tabbed out yet that would require a
second guitar.
But as for now this is all I can provide.



| /  slide up
| \  slide down
| h  hammer-on
| p  pull-off
| ~  vibrato
| +  harmonic
| x  Mute note
comments
print report bad tab
1 comment total.
0 reply
zzzzzzzzzzzzz wrote on October 26 2006, 12:59 am

totally wrong

I want to post or [tab]
guest
You may want to rate the tab now too:
select rating
Please do not post tabs as comments. Select "correction" instead!