Oops, an error
Loading. Please wait.

Here Without You Tab

version 8
version 8
38,252 views 33 this week
2 commentsread comments
1 2 3 4 5
excellent!
x 8
add to favorites
launch autoscroll
font size
0
reset
how to read this tab
guitar tuner
Autoscroll
slow
fast
+/-
esc
set tempo
stop
Help us to improve Ultimate-Guitar.com Take our survey!
×
Author
Capo
1st fret
3 DOORS DOWN - HERE WITHOUT YOU

Hey, wassup? This is a really good song that I listen to constantly. I'm pretty sure 
this is almost 100% correct.

Capo I

Verse
Fig. 1            Fig. 2
 Am                F       G
-----------------|------------------|
----1--0--0-1----|-------------0----|
---2-2--2--2-2---|-----------0--0---|
--2---2--2----2--|-----3----0-0--0--|
-0---------------|--0-3-3---------3-|
---------------3-|-1-----3-3--------|

 Am                G
-----------------|----------------|
----1--0--0-1----|----0--1--0-1/3-|
---2-2--2--2-2---|---0-0--0--0----|
--2---2--2----2--|--0---0--0------|
-0-------------0-|----------------|
-----------------|-3--------------|

Chorus
 C                    G
--------0----1-0----|---------3--1-0-----|
---1-3---1------3-1-|----0-0---0--0-0-3--|
--0---0---0---------|---0---0---0------0-|
-------2---2--------|--0-----0-----------|
-3----------3-------|--------------------|
--------------------|-3------------------|

 Am                F    G
-----------------|---------------|
----1--3--1-3-1--|----------0----|
---2-2--2--2-2-2-|--------0--0---|
--2---2--2-------|-----3-0-0--0--|
-0---------------|--0-3--------2-|
-----------------|-1----3--------|

Bridge
Just strum these chords
Am C F G

Last chord
 Am
---|
-1-|
-2-|
-2-|
-0-|
---|
Suggest correction
comments
print report bad tab
2 comments total.
0 reply
skatenos1996 188 wrote on May 2 2013, 08:53 am

in Chorus this part:

C G
--------0----1-0----|-------3--1-0-----|
---1-3---1------3-1-|----0---0--0-0-3--|
--0---0---0---------|---0-----0------0-|
-------2---2--------|--0---------------|
-3----------3-------|------------------|
--------------------|-3----------------|

i think is incoplited (G chord)

it sounds better like this

C G
--------0----1-0----|---------3--1-0-----|
---1-3---1------3-1-|----0-0---0--0-0-3--|
--0---0---0---------|---0---0---0------0-|
-------2---2--------|--0-----0-----------|
-3----------3-------|--------------------|
--------------------|-3------------------|

0 reply
HoverFan#1 532 wrote on May 2 2013, 12:40 pm

Thanks! I'll change that.

guest
You may want to rate the tab now too:
select rating
Please do not post tabs as comments. Select "correction" instead!