Oops, an error
Loading. Please wait.
We have an official Here Without You tab made by UG professional guitarists. Check out the tab »
×
20,584 views 39 this week
no commentswrite comment
1 2 3 4 5
x 4
add to favorites
launch autoscroll
font size
0
reset
how to read this tab
guitar tuner
backing track
0:00
0:00
×
Best way to learn
"Here Without You"
Autoscroll
slow
fast
+/-
esc
set tempo
stop
Author
Difficulty
Capo
  follow
intermediate
1st fret
Capo 1
 
    E  S S S S S S S S S S S S S S    S S S S S S E  S S S S S S E   
e|---------------------------------|--------------------------------|
B|---------1-----0-----0---1-------|--------------------------------|
G|-------2---2-----2-----2---2-----|--------2--------------4--------|
D|-----2-------2-----2---------2---|------3---3--------5-----5------|
A|--0------------------------------|----3-------3----5---5-----5----|
E|-------------------------------3-|--1-----------3--------------3--|

    E  S S S S S S S S S S S S E     E  S S S S S S S S S S E   E    
e|--------------------------------|---------------------------------|
B|---------1-----0-----0---1------|---------------------------------|
G|-------2---2-----2-----2---2----|---------4-----5-----4---5S--7~--|
D|-----2-------2-----2---------2--|-------5---5-----5-----5---------|
A|--0-----------------------------|-----5-------5-----5-------------|
E|--------------------------------|--3------------------------------|

    E  S S S S S S S S S S S S S S    S S S S S S E  S S S S S S E   
e|---------------------------------|--------------------------------|
B|---------1-----0-----0---1-------|--------------------------------|
G|-------2---2-----2-----2---2-----|--------2--------------4--------|
D|-----2-------2-----2---------2---|------3---3--------5-----5------|
A|--0------------------------------|----3-------3----5---5-----5----|
E|-------------------------------3-|--1-----------3--------------3--|

    E  S S S S S S S S S S S S E     E  S S S S S S S S S S E   E   
e|--------------------------------|--------------------------------|
B|---------1-----0-----0---1------|--------------------------------|
G|-------2---2-----2-----2---2----|---------4-----5-----4---5S--7--|
D|-----2-------2-----2---------2--|-------5---5-----5-----5--------|
A|--0-----------------------------|-----5-------5-----5------------|
E|--------------------------------|--3-----------------------------|

    E  S S S S S S S S S S S S S S    S S S S S S E  S S S S S S E   
e|---------------------------------|--------------------------------|
B|---------1-----0-----0---1-------|--------------------------------|
G|-------2---2-----2-----2---2-----|--------2--------------4--------|
D|-----2-------2-----2---------2---|------3---3--------5-----5------|
A|--0------------------------------|----3-------3----5---5-----5----|
E|-------------------------------3-|--1-----------3--------------3--|

    E  S S S S S S S S S S S S E     E  S S S S S S S S S S E   E   
e|--------------------------------|--------------------------------|
B|---------1-----0-----0---1------|--------------------------------|
G|-------2---2-----2-----2---2----|---------4-----5-----4---5S--7--|
D|-----2-------2-----2---------2--|-------5---5-----5-----5--------|
A|--0-----------------------------|-----5-------5-----5------------|
E|--------------------------------|--3-----------------------------|

    E  S S S S S S S S S S S S S S    S S S S S S E  S S S S S S E   
e|---------------------------------|--------------------------------|
B|---------1-----0-----0---1-------|--------------------------------|
G|-------2---2-----2-----2---2-----|--------2--------------4--------|
D|-----2-------2-----2---------2---|------3---3--------5-----5------|
A|--0------------------------------|----3-------3----5---5-----5----|
E|-------------------------------3-|--1-----------3--------------3--|

    E  S S E  T  T Q    S S S S S    E  S S E.  E.  E  E  E   
e|--------------------------------|-------------3------------|
B|---------3-------5------6-5-3---|-----------------6--5--3--|
G|-------5--------------5-------5-|---------4----------------|
D|-----5------3S-5----------------|-------5------------------|
A|--3-----------------------------|-----5--------------------|
E|--------------------------------|--3-----------------------|

    E  S S S S S E  E  S S S S S    E  S S E  S E  S S S S S S S  
e|-------------------------------|-------------------------------|
B|---------1-----3--1----3-1-----|-------------------------------|
G|-------2---2---------2-----2---|---------2-------------4-------|
D|-----2-------2---------------2-|-------3-----------5-----5-----|
A|--0----------------------------|-----3------3----5---5-----5---|
E|-------------------------------|--1-----------3--------------3-|

    E  S S E  T  T Q    S S S S S    E  S S E.  E.  E  E  E   
e|--------------------------------|-------------3------------|
B|---------3-------5------6-5-3---|-----------------6--5--3--|
G|-------5--------------5-------5-|---------4----------------|
D|-----5------3S-5----------------|-------5------------------|
A|--3-----------------------------|-----5--------------------|
E|--------------------------------|--3-----------------------|

    E  S S S S S E  E  S S S S S    E  S S E  S E  S S S S S S S  
e|-------------------------------|-------------------------------|
B|---------1-----3--1----3-1-----|-------------------------------|
G|-------2---2---------2-----2---|---------2-------------4-------|
D|-----2-------2---------------2-|-------3-----------5-----5-----|
A|--0----------------------------|-----3------3----5---5-----5---|
E|-------------------------------|--1-----------3--------------3-|

    E  S S S S S S S S S S S S E     E  S S S S S S S S S S E   E   
e|--------------------------------|--------------------------------|
B|---------1-----0-----0---1------|--------------------------------|
G|-------2---2-----2-----2---2----|---------4-----5-----4---5S--7--|
D|-----2-------2-----2---------2--|-------5---5-----5-----5--------|
A|--0-----------------------------|-----5-------5-----5------------|
E|--------------------------------|--3-----------------------------|

    E  S S S S S S S S S S S S S S    S S S S S S E  S S S S S S E   
e|---------------------------------|--------------------------------|
B|---------1-----0-----0---1-------|--------------------------------|
G|-------2---2-----2-----2---2-----|--------2--------------4--------|
D|-----2-------2-----2---------2---|------3---3--------5-----5------|
A|--0------------------------------|----3-------3----5---5-----5----|
E|-------------------------------3-|--1-----------3--------------3--|

    E  S S S S S S S S S S S S E     E  S S S S S S S S S S E   E   
e|--------------------------------|--------------------------------|
B|---------1-----0-----0---1------|--------------------------------|
G|-------2---2-----2-----2---2----|---------4-----5-----4---5S--7--|
D|-----2-------2-----2---------2--|-------5---5-----5-----5--------|
A|--0-----------------------------|-----5-------5-----5------------|
E|--------------------------------|--3-----------------------------|

    E  S S S S S S S S S S S S S S    S S S S S S E  S S S S S S E   
e|---------------------------------|--------------------------------|
B|---------1-----0-----0---1-------|--------------------------------|
G|-------2---2-----2-----2---2-----|--------2--------------4--------|
D|-----2-------2-----2---------2---|------3---3--------5-----5------|
A|--0------------------------------|----3-------3----5---5-----5----|
E|-------------------------------3-|--1-----------3--------------3--|

    E  S S S S S S S S S S S S E     E  S S S S S S S S S S E   E   
e|--------------------------------|--------------------------------|
B|---------1-----0-----0---1------|--------------------------------|
G|-------2---2-----2-----2---2----|---------4-----5-----4---5S--7--|
D|-----2-------2-----2---------2--|-------5---5-----5-----5--------|
A|--0-----------------------------|-----5-------5-----5------------|
E|--------------------------------|--3-----------------------------|

    E  S S S S S S S S S S S S S S    S S S S S S E  S S S S S S E   
e|---------------------------------|--------------------------------|
B|---------1-----0-----0---1-------|--------------------------------|
G|-------2---2-----2-----2---2-----|--------2--------------4--------|
D|-----2-------2-----2---------2---|------3---3--------5-----5------|
A|--0------------------------------|----3-------3----5---5-----5----|
E|-------------------------------3-|--1-----------3--------------3--|

    E  S S E  T  T Q    S S S S S    E  S S E.  E.  E  E  E   
e|--------------------------------|-------------3------------|
B|---------3-------5------6-5-3---|-----------------6--5--3--|
G|-------5--------------5-------5-|---------4----------------|
D|-----5------3S-5----------------|-------5------------------|
A|--3-----------------------------|-----5--------------------|
E|--------------------------------|--3-----------------------|

    E  S S S S S E  E  S S S S S    E  S S E  S E  S S S S S S S  
e|-------------------------------|-------------------------------|
B|---------1-----3--1----3-1-----|-------------------------------|
G|-------2---2---------2-----2---|---------2-------------4-------|
D|-----2-------2---------------2-|-------3-----------5-----5-----|
A|--0----------------------------|-----3------3----5---5-----5---|
E|-------------------------------|--1-----------3--------------3-|

    E  S S E  T  T Q    S S S S S    E  S S E.  E.  E  E  E   
e|--------------------------------|-------------3------------|
B|---------3-------5------6-5-3---|-----------------6--5--3--|
G|-------5--------------5-------5-|---------4----------------|
D|-----5------3S-5----------------|-------5------------------|
A|--3-----------------------------|-----5--------------------|
E|--------------------------------|--3-----------------------|

    E  S S S S S E  E  S S S S S    E  S S E  S E  S S S S S S S  
e|-------------------------------|-------------------------------|
B|---------1-----3--1----3-1-----|-------------------------------|
G|-------2---2---------2-----2---|---------2-------------4-------|
D|-----2-------2---------------2-|-------3-----------5-----5-----|
A|--0----------------------------|-----3------3----5---5-----5---|
E|-------------------------------|--1-----------3--------------3-|

    Csus2               G                   Am                  F                 
    W                   W                   W                   W                 
e|--3----------------|--3----------------|--0----------------|--1----------------|
B|--3----------------|--3----------------|--1----------------|--1----------------|
G|--5----------------|--4----------------|--2----------------|--2----------------|
D|--5----------------|--5----------------|--2----------------|--3----------------|
A|--3----------------|--5----------------|--0----------------|--3----------------|
E|-------------------|--3----------------|-------------------|--1----------------|

    Csus2               G                   Am                  F                 
    W                   W                   W                   W                 
e|--3----------------|--3----------------|--0----------------|--1----------------|
B|--3----------------|--3----------------|--1----------------|--1----------------|
G|--5----------------|--4----------------|--2----------------|--2----------------|
D|--5----------------|--5----------------|--2----------------|--3----------------|
A|--3----------------|--5----------------|--0----------------|--3----------------|
E|-------------------|--3----------------|-------------------|--1----------------|

    F                                                                             
    W                   E  S S E  T  T Q    S S S S S    E  S S E.  E.  E  E  E   
e|--1----------------|--------------------------------|-------------3------------|
B|--1----------------|---------3-------5------6-5-3---|-----------------6--5--3--|
G|--2----------------|-------5--------------5-------5-|---------4----------------|
D|--3----------------|-----5------3S-5----------------|-------5------------------|
A|--3----------------|--3-----------------------------|-----5--------------------|
E|--1----------------|--------------------------------|--3-----------------------|

    E  S S S S S E  E  S S S S S    E  S S E  S E  S S S S S S S  
e|-------------------------------|-------------------------------|
B|---------1-----3--1----3-1-----|-------------------------------|
G|-------2---2---------2-----2---|---------2-------------4-------|
D|-----2-------2---------------2-|-------3-----------5-----5-----|
A|--0----------------------------|-----3------3----5---5-----5---|
E|-------------------------------|--1-----------3--------------3-|

    E  S S E  T  T Q    S S S S S    E  S S E.  E.  E  E  E   
e|--------------------------------|-------------3------------|
B|---------3-------5------6-5-3---|-----------------6--5--3--|
G|-------5--------------5-------5-|---------4----------------|
D|-----5------3S-5----------------|-------5------------------|
A|--3-----------------------------|-----5--------------------|
E|--------------------------------|--3-----------------------|

    E  S S S S S E  E  S S S S S    E  S S E  S E  S S S S S S S  
e|-------------------------------|-------------------------------|
B|---------1-----3--1----3-1-----|-------------------------------|
G|-------2---2---------2-----2---|---------2-------------4-------|
D|-----2-------2---------------2-|-------3-----------5-----5-----|
A|--0----------------------------|-----3------3----5---5-----5---|
E|-------------------------------|--1-----------3--------------3-|

    E  S S E  T  T Q    S S S S S    E  S S E.  E.  E  E  E   
e|--------------------------------|-------------3------------|
B|---------3-------5------6-5-3---|-----------------6--5--3--|
G|-------5--------------5-------5-|---------4----------------|
D|-----5------3S-5----------------|-------5------------------|
A|--3-----------------------------|-----5--------------------|
E|--------------------------------|--3-----------------------|

    E  S S S S S E  E  S S S S S    E  S S E  S E  S S S S S S S  
e|-------------------------------|-------------------------------|
B|---------1-----3--1----3-1-----|-------------------------------|
G|-------2---2---------2-----2---|---------2-------------4-------|
D|-----2-------2---------------2-|-------3-----------5-----5-----|
A|--0----------------------------|-----3------3----5---5-----5---|
E|-------------------------------|--1-----------3--------------3-|

    E  S S E  T  T Q    S S S S S    E  S S E.  E.  E  E  E   
e|--------------------------------|-------------3------------|
B|---------3-------5------6-5-3---|-----------------6--5--3--|
G|-------5--------------5-------5-|---------4----------------|
D|-----5------3S-5----------------|-------5------------------|
A|--3-----------------------------|-----5--------------------|
E|--------------------------------|--3-----------------------|

    E  S S S S S E  E  S S S S S    E  S S E  S E  S S S S S S S  
e|-------------------------------|-------------------------------|
B|---------1-----3--1----3-1-----|-------------------------------|
G|-------2---2---------2-----2---|---------2-------------4-------|
D|-----2-------2---------------2-|-------3-----------5-----5-----|
A|--0----------------------------|-----3------3----5---5-----5---|
E|-------------------------------|--1-----------3--------------3-|

    W                   W                   W                 
e|-------------------|-------------------|-------------------|
B|-------------------|-------------------|-------------------|
G|-------------------|-------------------|-------------------|
D|-------------------|-------------------|-------------------|
A|-------------------|-------------------|-------------------|
E|--5----------------|--5----------------|--5----------------|

    W                  
e|-------------------|
B|-------------------|
G|-------------------|
D|-------------------|
A|-------------------|
E|--5----------------|



************************************

| ~  Vibrato

************************************
Suggest correction
comments
print report bad tab
guest
You may want to rate the tab now too:
select rating
Wanna post a correction for this tab? Suggest correction