Oops, an error
Loading. Please wait.

If I Could Be Like That Bass Tab

version 1
version 1

Whole song

Interactive

2,850 views 3 this week
2 commentsread comments
1 2 3 4 5
x 5
add to favorites
launch autoscroll
font size
0
reset
guitar tuner
Autoscroll
slow
fast
+/-
esc
set tempo
stop
Help us to improve Ultimate-Guitar.com Take our survey!
×
Author
Difficulty
novice
Band: 3 Doors Down
Song: If I Could Be Like That
Instrument: Bass Guitar
Tuning: Standard
Tabbed By: Tommy Clark
Email: tommy@texound.co.uk

00:40
|--------------------------------------------------------|
|--------------------------------------------------------|
|----5-----3-------5-----3-------------------------------|
|-3-----0-------3-----0----------------------------------|

1:00
|------7-5-4-5-------------------------------------------|
|-0/5--------------7-5-4-5-----9-7-5-4-------------------|
|---------------5-----------7-----------3--3-------------|
|--------------------------------------------------------|

|-----7-5-4-5--------------------------------------------|
|--5--------------7-5-4-5-----9-7-5-4--------------------|
|--------------5-----------7-----------3-----------------|
|--------------------------------------------------------|

1:20
|-----------0h2------------------------------------------|
|-------0h2------------5---5-----------------------------|
|-0--0-----------3--3----3---3---------------------3h5---|
|-------------------------------3--3--0--3--3--3h5-------|


|-----------0h2------------------------------------------|
|-------0h2------------5---5-----------------------------|
|-0--0-----------3--3----3---3---------------------------|
|-------------------------------3--3--3/7-8--------------|

1:40
|--------------------------------------------------------|
|--------------------------------------------------------|
|----------3---2----5-----3--2----------5-----5-----3----|
|-3--2--0--------3-----0-------3--2--0-----3-----0-------|

2:20
|------7-5-4-5-------------------------------------------|
|---5--------------7-5-4-5-----9-7-5-4-------------------|
|---------------5-----------7-----------3--3-------------|
|--------------------------------------------------------|

|-----7-5-4-5--------------------------------------------|
|--5--------------7-5-4-5-----9-7-5-4--------------------|
|--------------5-----------7-----------3-----------------|
|--------------------------------------------------------|

2:40
|-----------0h2------------------------------------------|
|-------0h2------------5---5-----------------------------|
|-0--0-----------3--3----3---3---------------------3h5---|
|-------------------------------3--3--0--3--3--3h5-------|


|-----------0h2------------------------------------------|
|-------0h2------------5---5-----------------------------|
|-0--0-----------3--3----3---3---------------------------|
|-------------------------------3--3--3/7-8--------------|

3:00
|--------------------------------------------------------|
|--------------------------------------------------------|
|----5-----3---------------------------------------------|
|-3-----0-------3--2--0----------------------------------|

3:20
|--------------------------------------------------------|
|--------------------------------------------------------|
|----5>-7>-3>-----5>-7>-3>-----5>-7>-3>-----5>-7>-3>-----|
|-3>-----------3>-----------3>-----------3>--------------|

4:00
|--------------------------------------------------------|
|-----------0h2------------------0h2---------------------|
|-------0h2------3--3--------0h2------3--3---------------|
|-0--0-----------------0--0------------------------------|

|--------------------------------------------------------|
|-----------0h2------------------------------------------|
|-------0h2------3--3------------------------------------|
|-0--0-----------------3---------------------------------|

/ Slide
> Repeat
h Hammer On
Suggest correction
comments
print report bad tab
2 comments total.
0 reply
Harley Fay 654 Oct 14, 2008 04:13 PM

you missed added to many notes in some parts and others were tabbed at the wrong octave.

0 reply
sadsadtoaster 20 Nov 21, 2008 11:24 PM

i don't care what he says, this is the best tab I've seen so far, thanks much.

guest
You may want to rate the tab now too:
select rating
Wanna post a correction for this tab? Suggest correction