Oops, an error
Loading. Please wait.

In The Dark Tab tab

4,960 views 18 this week
4 commentsread comments
1 2 3 4 5
x 10
add to favorites
×
Save as Personal and add changes to this tab that will be seen only by you. Learn more ›
×
You can save this tab as Personal to edit and correct it or add notes. All changes will be seen only by you. Learn more »
launch autoscroll
font size
0
reset
how to read this tab
guitar tuner
edit
Autoscroll
slow
fast
+/-
esc
set tempo
stop
-------------------------------------------------------------------------------
                             In the Dark - 3 Doors Down
-------------------------------------------------------------------------------
Tabbed by: Monique

Tuning: Standard (EADGBe)
This is my first tab ever. I figured it out by ear and this is what I came up with.
There is a live video on youtube that I watched and it helps if you have trouble hearing
both guitars, that way you see them playing. I mixed both the recording and the live
video so you can get an idea of how it sounds both ways. I didn't take the time to figure
out the solo though.

b = bend (not really sure how to notate a bend but I assume you know what it
sounds like in the song)
p = pull off
x = mute note
~ = sustain note or chord
(x5,x8,x10,x16) = how many times the chord is played


INTRO GUITAR I
e|---------------------------------------------------------------|
B|---------------------------------------------------------------|
G|----7b7p5---7-5------------------------------------------------|
D|-----------------7-5-7-9-10---xx-7-9-10---7-9-10---xx-7-9-10---|
A|---------------------------------------------------------------|
E|---------------------------------------------------------------|

e|--------------------------------------------------------------|
B|--------------------------------------------------------------|
G|-------------------------------------------------2-2----------|
D|----7-9-10---xx-7-9-10---7-9-10---xx-7-9-10------2-2----------|
A|-------------------------------------------------0-0----------|
E|--------------------------------------------------------------|

INTRO GUITAR II
e|-------------------------------------------|
B|-------------------------------------------|
G|--------------------------7~~~~~~~---------|
D|----7~~~~~~~---5~~~~~~~---7~~~~~~~---------|
A|----7~~~~~~~---5~~~~~~~---5~~~~~~~---------|
E|----5~~~~~~~---3~~~~~~~--------------------|

VERSE I GUITAR I [pretty little vixen....]
e|------------------------------------------|
B|------------------------------------------|
G|--------------------------7~~~~~~~--------|2x
D|----7~~~~~~~---9~~~~~~~-------------------|
A|------------------------------------------|
E|------------------------------------------|

VERSE I GUITAR II [maybe it's just something....]
e|-----------------------------------|
B|-----------------------------------|
G|------------------------7----------|3x
D|-------7-------5--------7----------|
A|-------7-------5---(x16)5----------|
E|---(x8)5---(x8)3-------------------|

CHORUS I GUITAR I comes in after [she'll be holding your heart....]
e|-------------------------------------------------------------|
B|-------------------------------------------------------------|
G|----7b7p5---7-5-------10~~~~~~~---12~~~~~~~---7~~~~~~~-------|
D|----------------7-5---10~~~~~~~---12~~~~~~~---7~~~~~~~-------|
A|----------------------8~~~~~~~~---10~~~~~~~---5~~~~~~~-------|
E|-------------------------------------------------------------|

e|--------------------------------------------------------------|
B|--------------------------------------------------------------|
G|----7b7p5---7-5-----------------------------------------------|
D|----------------7-5-7-9-10---xx-7-9-10---7-9-10---xx-7-9-10---|
A|--------------------------------------------------------------|
E|--------------------------------------------------------------|

e|--------------------------------------------------------------|
B|--------------------------------------------------------------|
G|-------------------------------------------------2-2----------|
D|----7-9-10---xx-7-9-10---7-9-10---xx-7-9-10------2-2----------|
A|-------------------------------------------------0-0----------|
E|--------------------------------------------------------------|

CHORUS I GUITAR II
e|--------------------------------------------------------------|
B|--------------------------------------------------------------|
G|-------------------------7-------------------------7~~~~~~~---|
D|--------7-------5--------7---3~~~~~~~---5~~~~~~~---7~~~~~~~---|
A|--------7-------5---(x10)5---3~~~~~~~---5~~~~~~~---5~~~~~~~---|
E|----(x5)5---(x5)3------------1~~~~~~~---3~~~~~~~--------------|

e|-------------------------------------------|
B|-------------------------------------------|
G|--------------------------7~~~~~~~---------|
D|----7~~~~~~~---5~~~~~~~---7~~~~~~~---------|
A|----7~~~~~~~---5~~~~~~~---5~~~~~~~---------|
E|----5~~~~~~~---3~~~~~~~--------------------|

VERSE II GUITAR I
e|----------------------------------------------|  e|---------------------------------|
B|----------------------------------------------|  B|---------------------------------|
G|-----------7-7-7-7------------------7-7-7-7---|  G|----------------------7----------|2x
D|----5-5----7-7-7-7----7-7----5-5----7-7-7-7---|  D|-----7-------5--------7----------|
A|----5-5----5-5-5-5----7-7----5-5----5-5-5-5---|  A|-----7-------5---(x16)5----------|
E|----3-3---------------5-5----3-3--------------|  E|-(x8)5---(x8)3-------------------|

VERSE II GUITAR II
e|--------------------------------------|    e|-----------------------------------------|
B|--------------------------------------|    B|-----------------------------------------|
G|--------------------------------------|2x  G|---------------------------7~~~~~~~------|2x
D|----7~~~~~~~---5~~~~~~~---0~~~~~~~----|    D|-----7~~~~~~~---9~~~~~~~-----------------|
A|--------------------------------------|    A|-----------------------------------------|
E|--------------------------------------|    E|-----------------------------------------|

CHORUS II IS THE SAME AS THE FIRST ONE.

GUITAR II WOULD PLAY THIS ASSUMING GUITAR I PLAYS THE SOLO.
e|------------------------------------------------------------------------------------|
B|------------------------------------------------------------------------------------|
G|------------------------------------------------------7------------------------7----|
D|----2-2---2-2---2-2---2-2-5-5--------7-------5--------7-------7-------5--------7----|
A|----2-2---2-2---2-2---2-2-5-5--------7-------5---(X16)5-------7-------5---(X16)5----|
E|----0-0---0-0---0-0---0-0-3-3----(X8)5---(X8)3------------(X8)5---(X8)3-------------|

CHORUS III GUITAR I
e|---------------------------------------------------------------------------------------------------|
B|---------------------------------------------------------------------------------------------------|
G|----7b7p5---7-5-------10~~~~~~~---12~~~~~~~---7~~~~~~~---7b7p5---7-5---------------------------7---|
D|----------------7-5---10~~~~~~~---12~~~~~~~---7~~~~~~~---------------7-5-------7-------9-------7---|
A|----------------------8~~~~~~~~---10~~~~~~~---5~~~~~~~-------------------------7-------9---(x5)5---|
E|---------------------------------------------------------------------------(x5)5---(x5)7-----------|

e|--------------------------------------------------------------|
B|--------------------------------------------------------------|
G|----7b7p5---7-5-------10~~~~~~~---12~~~~~~~---7~~~~~~~--------|
D|----------------7-5---10~~~~~~~---12~~~~~~~---7~~~~~~~--------|
A|----------------------8~~~~~~~~---10~~~~~~~---5~~~~~~~--------|
E|--------------------------------------------------------------|

CHORUS III GUITAR II
e|---------------------------------------------------------------------------------------------------|
B|---------------------------------------------------------------------------------------------------|
G|--------------------------7~~~~~~~------------------------7--------------5~~~~~~~---7~~~~~~~-------|
D|----3~~~~~~~---5~~~~~~~---7~~~~~~~-------7-------5--------7---3~~~~~~~---5~~~~~~~---7~~~~~~~-------|
A|----3~~~~~~~---5~~~~~~~---5~~~~~~~-------7-------5---(x10)5---3~~~~~~~---3~~~~~~~---5~~~~~~~-------|
E|----1~~~~~~~---3~~~~~~~--------------(x5)5---(x5)3------------1~~~~~~~-----------------------------|

OUTRO GUITAR I
e|--------------------------------------------------------------|
B|--------------------------------------------------------------|
G|----7b7p5---7-5-----------------------------------------------|
D|----------------7-5-7-9-10---xx-7-9-10---7-9-10---xx-7-9-10---|
A|--------------------------------------------------------------|
E|--------------------------------------------------------------|

e|------------------------------------------------|    e|--------------|
B|------------------------------------------------|    B|--------------|
G|------------------------------------------------|3x  G|----2-2-------|
D|----7-9-10---xx-7-9-10---7-9-10---xx-7-9-10-----|    D|----2-2-------|
A|------------------------------------------------|    A|----0-0-------|
E|------------------------------------------------|    E|--------------|

OUTRO GUITAR II
e|-----------------------------------|    e|-------------|
B|-----------------------------------|    B|-------------|
G|------------------------7----------|2x  G|----2-2------|
D|-------7-------5--------7----------|    D|----2-2------|
A|-------7-------5---(x16)5----------|    A|----0-0------|
E|---(x8)5---(x8)3-------------------|    E|-------------|


            
            
Suggest correction
Creating personal tab
Creating personal tab
You can edit any tab online and save it as your Personal.

You can edit, replace or remove any tab part or add personal notes – all changes will be seen only by you.

Personal tabs can be accessed anytime from any device, even offline.
Learn more »
comments
print report bad tab
4 comments total. Showing first comments.
0 reply
KingDeXtreme 79 Jan 27, 2016 11:50 AM

Great tab. Totally :D

+2 reply
cco15 10 Feb 09, 2016 03:36 PM

Great tab, i have something i'd like to add though. when doing the sequence for 7b-7-5--7-5--7-5-7-9-10, Id suggest double stopping all of those 5s and 7s with the B string. personally get a sound that i hear is more spot on.

So I use. But still great job, you saved me a lot of time and that's the only thing i even have a comment on.

e|---------------------------------------------------------------|
B|----7b7p5---7-5-------------------------------------------------|
G|----7b7p5---7-5--7-5-7-----------------------------------------|
D|-----------------7-5-7-9-10---xx-7-9-10---7-9-10---xx-7-9-10---|
A|---------------------------------------------------------------|
E|---------------------------------------------------------------|

0 reply
micah.l.basham 10 Aug 30, 2016 11:04 PM

Great and accurate tab!

guest
You may want to rate the tab now too:
select rating
Wanna post a correction for this tab? Suggest correction