Oops, an error
Loading. Please wait.

Its Not My Time Tab

version 3
version 3

Whole song

Interactive

8,787 views 1 this week
1 commentread comment
1 2 3 4 5
worth learning
x 3
add to favorites
launch autoscroll
font size
0
reset
how to read this tab
guitar tuner
Autoscroll
slow
fast
+/-
esc
set tempo
stop
Help us to improve Ultimate-Guitar.com Take our survey!
×
Author
Standard tuning
e
B
G
D
A
E

Intro:
Guitar 1:
e|----------------------------------------------------------------------------------------------|
b|----0-1-----------0-------0---------------------0------0-1-------------0-------0--------------|
g|---------2-----------0-------0----0-2------2------2---------2------------0-------0----0-2---2-|
d|-----------2------------2------2--------3------3-----3----------2------------2------2------3--|
a|---------------0-----------------------------------------------------0------------------------|
e|----------------------------------------------------------------------------------------------|
and then both guitars
e |---------------------------------------------------------------------|
b |---------------------------------------------------------------------|
g |------------------------- 5------------------------------------------|
d |----7---5---3-----------5---------5----------------------------------|
a |----7---5---3-----------3---------5----------------------------------|
e |----5---3---1---------------------3----------------------------------|


Verse :
Guitar 1:
e|--------------------------------------------------------------------------------------|
b|-------------------------0-1----1-0----------0-1------1-0-----0-1---------------------|
g|----------0-2--------2-------2-----------2---------2---------2------------------------|
d|------3------------2--------2----------2---------2---------2--------------------------|
a|----3--------------------------------0------------------------------------------------|
e|--1-----------------------------------------------------------------------------------|
Looking back at the beginning of this
And how life was

e|-----------------------------------------------------------------------------------|
b|-----------------------0-1----1-0----------0-1------1-0---3-1-0--------------------|
g|----------0-2-------2-------2-----------2---------2----------------4---------------|
d|------3-----------2--------2----------2---------2----------------------------------|
a|----3------------------------------0-----------------------------------------------|
e|--1--------------------------------------------------------------------------------|
Just you and me and love and all of our friends
Living life like an ocean…..


Guitar 1 plays the same..this is guitar 2 in this part of the song


e |---------------------------------------------------------------------|
b |---------------------------------------------------------------------|
g |------------------------- -------------------------------------------|
d |--3--3--3--3---------7---7---7---------------------------------------|
a |--3--3--3--3---------7---7---7---------------------------------------|
e |--1--1--1--1---------5---5---5---------------------------------------|
Now the currents .....It’s getting harder to breath

e |---------------------------------------------------------------------|
b |---------------------------------------------------------------------|
g |------------------------- -------------------------------------------|
d |--3--3--3--3---------7---7---7-----5---------------------------------|
a |--3--3--3--3---------7---7---7-----5---------------------------------|
e |--1--1--1--1---------5---5---5-----3---------------------------------|
It won't be too long...Can you save me from this

Chorus :
e |---------------------------------------------------------------------|
b |---------------------------------------------------------------------|
g |------------------------5--------------------------------------------|
d |----7---5---3-----------5---------5----------------------------------|
a |----7---5---3-----------3---------5----------------------------------|
e |----5---3---1---------------------3----------------------------------|
 it’s not-my-time ……

Solo:
e|----10--12--10--12--10---------12-------------------------------------------------------------|
B|-----------------------------13--13-----13---13--12----12----12---10----10-----8---8----------|
G|----------------------------------------------------------------------------------------------|
D|----------------------------------------------------9----9------------7-----------5-----------|
A|----------------------------------------------------------------------------------------------|
E|----------------------------------------------------------------------------------------------|


Bridge :

e|-----------------------------------------------------------|
B|-----------------------------------------------------------|
G|----------------5------------------------------------------|
D|--3-------------5---------------5--------------------------|
A|--3-------------3---------------5--------------------------|
E|--1-----------------------------3--------------------------|
There might be more than you believe….


e|------------------------------------------------------|
b|------------------------------------------------------|
g|----------------5-------------------------------------|
d|--3-------------5----------5--------------------------|
a|--3-------------3----------5--------------------------|
e|--1------------------------3--------------------------|
There might be more than you can see…..

Outro:
just as the verse for both guitars

Verse 1:
F
Looking back at the beginning of this
Am
And how life was
F
Just you and me and love and all of our friends
Am
Living life like an ocean
F
Now the currents slowly pulling me down
Am
It's getting harder to breath
F
It won't be too long and I'll be going under
Am                          G
Can you save me from this


Chorus:
                  Am   G   F
Cause It's not my time,
            C
I'm not going
                             G
There's a fear in me
It's not showing
 Am   G    F
This could be the end of me
        C                      G
And everything I know
                     Am
Oh, I won't go

Verse 2:
I look ahead to all the plans that we made
And the dreams that we had
I'm in a world that tries to take them away
Oh, but I'm taking them back
All this time I've just been to blind to understand
What should matter to me
My friend, this life we live is not what we have
is what we believe

Bridge :
F                     C             G
There might be more than you believe(there might be more than you believe)
F                   C                          G
There might be more than you can see

Outro:
          F
I won't go!
            Am                    F              Am
No I wooooon't gooo down     yeaaa!

Ends on Am
Suggest correction
Give kudos to tab author, rate the tab!
1 2 3 4 5
comments
print report bad tab
1 comment total.
0 reply
Faded hallway 10 wrote on August 10 2009, 08:15 pm

WTF you stole it! Not cool bro.

guest
You may want to rate the tab now too:
select rating
Wanna post a correction for this tab? Suggest correction