Oops, an error
Loading. Please wait.

Its Not My Time Bass Tab

version 4
version 4

Whole song

Interactive

402 views 1 this week
no commentswrite comment
1 2 3 4 5
please rate
add to favorites
launch autoscroll
font size
0
reset
guitar tuner
Autoscroll
slow
fast
+/-
esc
set tempo
stop
Help us to improve Ultimate-Guitar.com Take our survey!
×
Author
Difficulty
novice
It's Not My Time - 3 Doors Down
Bass

 =================
|| = - TIE/HOLD  ||
|| R - REST      ||
 =================

*Note* Each ||---|---|| is two bars (4 counts each)

//INTRO// #FIRST 7 BARS SILENT
G||-----------------------------------||
D||-----------------------------------||
A||-----------------------------------||
E||--------------5-------3-------1===-||

//CHORUS// X2
G||-----------------------------------|-----------------------------------||
D||-----------------------------------|-----------------------------------||
A||------------------------------3===-|--====3---3-----------3------------||
E||--====1---1-----------1------------|------------------------------3===-||

G||-----------------------------------|-----------------------------------|| #SECOND TIME
D||-----------------------------------|-----------------------------------||  LAST NOTE
A||-----------------------------------|-----------------------------------||  OF LAST BAR
E||--====3---3-----------3-------3===-|--====3---3---5-------3-------1===-||  NOT HELD

//VERSE// X4
G||-----------------------------------|-----------------------------------||
D||-----------------------------------|-----------------------------------||
A||-----------------------------------|-----------------------------------||
E||--1---1---1---1---1---1---1---1----|--1---1---1---1---1---1---1---1----||

G||-----------------------------------|-----------------------------------||
D||-----------------------------------|-----------------------------------||
A||--0---0---0---0---0---0---0---0----|--0---0---0---0---0---0---0---0----||
E||-----------------------------------|-----------------------------------||

#REPLACES LAST BAR AT END OF VERSE
G||-----------------------------------||
D||-----------------------------------||
A||--0---0---0------------------------||
E||--------------5-------3-------1===-||

//CHORUS// X2

//VERSE// X5

//CHORUS// X4 #WITHOUT REPLACED BAR

//SOLO// X4
G||-----------------------------------|-----------------------------------||
D||-----------------------------------|-----------------------------------||
A||------------------------------3===-|--====3---3------------3-----------||
E||--====1---1-----------1------------|------------------------------5===-||

G||-----------------------------------|-----------------------------------||
D||-----------------------------------|-----------------------------------||
A||-----------------------------------|-----------------------------------||
E||--====5---5-----------5-------5===-|--====5---5---5--------3------1===-||

#REPLACES LAST BAR AT END OF SOLO
G||-----------------------------------||
D||-----------------------------------||
A||-----------------------------------||
E||--====5---5---5---R-----------1===-||

//CHORUS// X4 #WITHOUT REPLACED BAR

//OUTRO//
G||-----------------------------------|-----------------------------------||
D||-----------------------------------|-----------------------------------||
A||------------------------------3===-|--====3---3-----------3------------||
E||--====1---1-----------1------------|------------------------------5===-||

G||-----------------------------------|-----------------------------------||
D||-----------------------------------|-----------------------------------||
A||-----------------------------------|-----------------------------------||
E||--====5---5-----------5-------5===-|--====5---5---5-------3-------1===-||

G||-----------------------------------|-----------------------------------||
D||-----------------------------------|-----------------------------------||
A||------------------------------3===-|--====3---3-----------3------------||
E||--====1---1-----------1------------|------------------------------5===-||

G||-----------------------------------|-----------------------------------||
D||-----------------------------------|-----------------------------------||
A||-----------------------------------|-----------------------------------||
E||--====5---5-----------5-------5===-|--====5---5---R---------------1===-||

G||-----------------------------------|-----------------------------------||
D||-----------------------------------|-----------------------------------||
A||------------------------------3===-|--====3---3-----------3------------||
E||--====1---1-----------1------------|------------------------------5===-||

G||-----------------------------------|-----------------------------------||
D||-----------------------------------|-----------------------------------||
A||-----------------------------------|-----------------------------------||
E||--====5---5-----------5-------5===-|--====5---5---5-------3-------1===-||

G||-----------------------------------|-----------------------------------|| #LAST NOTE
D||-----------------------------------|-----------------------------------||  RINGS OUT
A||------------------------------3===-|--====3---3-----------3------------||  TILL END
E||--====1---1-----------1------------|------------------------------5===-||  OF SONG

//END SONG//
Suggest correction
Give kudos to tab author, rate the tab!
1 2 3 4 5
comments
print report bad tab
guest
You may want to rate the tab now too:
select rating
Wanna post a correction for this tab? Suggest correction