Oops, an error
Loading. Please wait.

Its Not My Time Tab

version 4
version 4

Whole song

Interactive

17,707 views 19 this week
3 commentsread comments
1 2 3 4 5
excellent!
x 9
add to favorites
launch autoscroll
font size
0
reset
how to read this tab
guitar tuner
Tab Pro tools
  • play this tab
  • loop segment
  • change instrument
  • show fretboard
  • metronome
×
Best way to learn
"Its Not My Time"
Autoscroll
slow
fast
+/-
esc
set tempo
stop
Contributor
Difficulty
intermediate
-----------------------------------------------------
|          ITS NOT MY TIME - 3 DOORS DOWN |         |
-----------------------------------------------------

Tabbed by shaq147
(GUITAR 1 AND 2)
Scroll down for guitar 2
 
|GUITAR 1|

INTRO (CLEAN GUITAR - NO DISTORTION)
-----------------------------------------------------------------------------------|
0h1--------------0------------0----------------------------------------1-----------|
-----2---------------0-----------0---------0h2--------------2-------------2--------|
--------2-----2---------2-----------2-----------3--0------------3--0---------3-----|
0~~--------3---------------3-----------3---0----------0-----0-------------------3--|
-----------------3~~-------------------------------------3-------------------------|

---------------------------------------------------------------|
0h1--------------0------------0--------------------------------|
-----2---------------0-----------0---------0h2--------------2--|
--------2-----2---------2-----------2-----------3--0-----------|
0----------3---------------3-----------3---0----------0-----0--|
-----------------3~~-------------------------------------3-----|

(DISTORTION ON)
----------------------------------------------------------------------|
----------------------------------------------------------------------|
9--7--5---10-10-10/12---9---9-9-9/10--7---7-7-7-5--7---7-7-9-9-7-7-5--|
x--x--x---x--x--x-/x----x---x-x-x/x---x---x-x-x-x--x---x-x-x-x-x-x-x--|
7--5--3---8--8--8-/10---7---7-7-7-8---5---5-5-5-3--5---5-5-7-7-5-5-3--|
----------------------------------------------------------------------| 

-------------------------------------------------------------|
-------------------------------------------------------------|
-10-10-10/12---9---9-9-9/10--7---7-7-7-5--7---7-7-9-9-7-7-5--|
-x--x--x-/x----x---x-x-x/x---x---x-x-x-x--x---x-x-x-x-x-x-x--|
-8--8--8-/10---7---7-7-7-8---5---5-5-5-3--5---5-5-7-7-5-5-3--|
-------------------------------------------------------------| 


VERSE 1 (CLEAN GUITAR - NO DISTORTION)

    Lookin' back at the beginning  of  this,    and how life was
------------------------------------------------------------------------------------|
---------------------0h1--------1p0------------------0---------1---------1p0--------|
2---------0h2-------------2----------0-----2-------------0---------2----------------|
----3----------3-------------3----------2------3------------2---------3-------2-----|
-------3----------3-------------------------------3------------------------------3--|
------------------------------------------------------------------------------------|

 Just you n me n love n all of our friends, Livin' life like an coean
-------------------------------------------------------------------------1p0-----|
---------------------0h1--------1p0------------------0---------3--------------3--|
2---------0h2-------------2----------0-----2-------------0---------2-------------|
----3----------3-------------3----------2------3------------2---------3----------|
-------3----------3-------------------------------3------------------------------|
---------------------------------------------------------------------------------|

 But now the currents slowly pullin me down, it's gettin harder to breathe
------------------------------------------------------------------------------------|
---------------------0h1--------1p0------------------0---------1---------1p0--------|
2---------0h2-------------2----------0-----2-------------0---------2----------------|
----3----------3-------------3----------2------3------------2---------3-------2-----|
-------3----------3-------------------------------3------------------------------3--|
------------------------------------------------------------------------------------|

 It won't be too long and I'll be goin under, can you save me from this?
------------------------------------------------------------------------|
---------------------0h1--------1p0------------------0---------1--------|
2---------0h2-------------2----------0-----2-------------0---------2----|
----3----------3-------------3----------2------3------------2---------3-|
-------3----------3-------------------------------3---------------------|
------------------------------------------------------------------------|


CHORUS (DISTORTION ON)

Cuz it's not my time ,    Im not goin theres a fear in me, its not showing, this      
---------------------------------------------------------------------------------|
---------------------------------------------------------------------------------|
---------17--16--14---14-14-14-14---17---17-17-17-17---16---16-16-16-16---16--16-|
---------xx--xx--xx---xx-xx-xx-xx---xx---xx-xx-xx-xx---xx---xx-xx-xx-xx---xx--xx-|
---------15--14--12---12-12-12-12---15---15-15-15-15---14---14-14-14-14---14--14-|
---------------------------------------------------------------------------------|  

could be the end of me, n eve-ry-thing  I   know,          ohhh,        I  won't
-------------------------------------------------------------------------------|
-------------------------------------------------------------------------------|
17--16--14---14-14-14-14---17---17-17-17-17---16---16-16-16-16---16--16-17--16-|
xx--xx--xx---xx-xx-xx-xx---xx---xx-xx-xx-xx---xx---xx-xx-xx-xx---xx--xx-xx--xx-|
15--14--12---12-12-12-12---15---15-15-15-15---14---14-14-14-14---14--14-15--14-|
-------------------------------------------------------------------------------|  


SOLO 1 (DISTORTION ON)
 
go
-10--h12--10-h12-p10-----------12-------12-----------|
----------------------13---13-------13------13--12---|
-----------------------------------------------------|
-----------------------------------------------------|
-----------------------------------------------------|
-----------------------------------------------------|


-----------------------------------------|
----12-----12--10---10------8-----10-----|
9-------9---------------9------9------9--|
-----------------------------------------|
-----------------------------------------|
-----------------------------------------|


VERSE 2 (CLEAN GUITAR - NO DISTORTION)

I look ahead to all the plans that we made, and the dreams we had 
----------------------------------------------------------------------------------|
-------------------0h1--------1p0------------------0---------1---------1p0--------|
--------0h2-------------2----------0-----2-------------0---------2----------------|
--3----------3-------------3----------2------3------------2---------3-------2-----|
-----3----------3-------------------------------3------------------------------3--|
----------------------------------------------------------------------------------|

 Im in a world that tries to take them away, owh but im takin' them back
-------------------------------------------------------------------------1p0-----|
---------------------0h1--------1p0------------------0---------3--------------3--|
2---------0h2-------------2----------0-----2-------------0---------2-------------|
----3----------3-------------3----------2------3------------2---------3----------|
-------3----------3-------------------------------3------------------------------|
---------------------------------------------------------------------------------|

 Cuz all this time ive just been too blind to understand, what should matter to me
------------------------------------------------------------------------------------|
---------------------0h1--------1p0------------------0---------1---------1p0--------|
2---------0h2-------------2----------0-----2-------------0---------2----------------|
----3----------3-------------3----------2------3------------2---------3-------2-----|
-------3----------3-------------------------------3------------------------------3--|
------------------------------------------------------------------------------------|

 My friends, this life we live its not what we have, it's what we believe in
------------------------------------------------------------------------|
---------------------0h1--------1p0------------------0---------1--------|
2---------0h2-------------2----------0-----2-------------0---------2----|
----3----------3-------------3----------2------3------------2---------3-|
-------3----------3-------------------------------3---------------------|
------------------------------------------------------------------------|


CHORUS (DISTORTION ON)

It's not my time ,    Im not goin theres a fear in me, its not showin', this      
-----------------------------------------------------------------------------|
-----------------------------------------------------------------------------|
-----17--16--14---14-14-14-14---17---17-17-17-17---16---16-16-16-16---16--16-|
-----xx--xx--xx---xx-xx-xx-xx---xx---xx-xx-xx-xx---xx---xx-xx-xx-xx---xx--xx-|
-----15--14--12---12-12-12-12---15---15-15-15-15---14---14-14-14-14---14--14-|
-----------------------------------------------------------------------------|  

could be the end of me, n eve-ry-thing  I   know,               but its not my time
-----------------------------------------------------------------------------------|
-----------------------------------------------------------------------------------|
17--16--14---14-14-14-14---17---17-17-17-17---16---16-xx-16-16---16--16-17--16--14-|
xx--xx--xx---xx-xx-xx-xx---xx---xx-xx-xx-xx---xx---xx-xx-xx-xx---xx--xx-xx--xx--xx-|
15--14--12---12-12-12-12---15---15-15-15-15---14---14-xx-14-14---14--14-15--14--12-|
-----------------------------------------------------------------------------------|  

       Im not goin theres a will in me, now I know  that this    
-------------------------------------------------------------|
-------------------------------------------------------------|
--14-14-14-14---17---17-17-17-17---16---16-16-16-16---16--16-|
--xx-xx-xx-xx---xx---xx-xx-xx-xx---xx---xx-xx-xx-xx---xx--xx-|
--12-12-12-12---15---15-15-15-15---14---14-14-14-14---14--14-|
-------------------------------------------------------------|  

could be the end of me, n eve-ry-thing  I   know,              ohhh,    I  won't
-------------------------------------------------------------------------------|
-------------------------------------------------------------------------------|
17--16--14---14-14-14-14---17---17-17-17-17---16---16-16-16-16---16--16-17--16-|
xx--xx--xx---xx-xx-xx-xx---xx---xx-xx-xx-xx---xx---xx-xx-xx-xx---xx--xx-xx--xx-|
15--14--12---12-12-12-12---15---15-15-15-15---14---14-14-14-14---14--14-15--14-|
-------------------------------------------------------------------------------| 


SOLO 2 (DISTORTION ON) (VERY FAST ALTERNATE PICKING)

go                          ohh                oh oh
-----------------------------------------------------|
-----------------------------------------------------|
-----------------------------------------------------|
-----------------------------------------------------|
--15-15-15-15-15-15-15-15-15-14-14-14-14-14-14-14-14-|
-----------------------------------------------------|

ohhhh                                     I wont know
----------------------------------------------------------------------|
----------------------------------------------------------------------|
----------------------------------------------------------------------|
----------------------------------------------------------------------|
-17-17-17-17-17-17-17-17-15-15h17-17-15-15h17-17-15-15h17-17-15h17-17-|
----------------------------------------------------------------------|

------------------------------------------------------|
------------------------------------------------------|
------------------------------------------------------|
------------------------------------------------------|
15-15-15-15-15-15-15-15-15-15-14-14-14-14-14-14-14-14-|
------------------------------------------------------|

---------------------------------------------------------|
---------------------------------------------------------|
---------------------------------------------------------|
---------------------------------------------------------|
17-17-17-17-15h17-17-15h17-17-17-17-17-17-17-17-17-17-17-|
---------------------------------------------------------|


BRIDGE (DISTORTION ON)

There    might    be    more   than  you    believe   (There might be more than you believe)
------------------------------------------------------------------------------------------------|
------------------------------------------------------------------------------------------------|
17-17-17-17-17-17-17-17-16-16-16-16-16-16-16-16-19-19-19-19-19-19-19-19-19-19-19-19-19-19-19-19-| 
xx-xx-xx-xx-xx-xx-xx-xx-xx-xx-xx-xx-xx-xx-xx-xx-xx-xx-xx-xx-xx-xx-xx-xx-xx-xx-xx-xx-xx-xx-xx-xx-|
15-15-15-15-15-15-15-15-14-14-14-14-14-14-14-14-17-17-17-17-17-17-17-17-17-17-17-17-17-17-17-17-|
------------------------------------------------------------------------------------------------| 

There    might    be    more  than  you  can   see                        But it's not my
----------------------------------------------------------------------------P--|
----------------------------------------------------------------------------A--|
17-17-17-17-17-17-17-17-16-16-16-16-16-16-16-16-19-19-19-19-19-19-19-19-19--U--| 
xx-xx-xx-xx-xx-xx-xx-xx-xx-xx-xx-xx-xx-xx-xx-xx-xx-xx-xx-xx-xx-xx-xx-xx-xx--S--|
15-15-15-15-15-15-15-15-14-14-14-14-14-14-14-14-17-17-17-17-17-17-17-17-17--E--|
----------------------------------------------------------------------------!--| 


CHORUS (DISTORTION ON)

time ,    Im not goin theres a fear in me, its not showing, this      
-----------------------------------------------------------------|
-----------------------------------------------------------------|
-14---14-14-14-14---17---17-17-17-17---16---16-16-16-16---16--16-|
-xx---xx-xx-xx-xx---xx---xx-xx-xx-xx---xx---xx-xx-xx-xx---xx--xx-|
-12---12-12-12-12---15---15-15-15-15---14---14-14-14-14---14--14-|
-----------------------------------------------------------------|  

could be the end of me, n eve-ry-thing  I   know,               but its not my time
-----------------------------------------------------------------------------------|
-----------------------------------------------------------------------------------|
17--16--14---14-14-14-14---17---17-17-17-17---16---16-xx-16-16---16--16-17--16--14-|
xx--xx--xx---xx-xx-xx-xx---xx---xx-xx-xx-xx---xx---xx-xx-xx-xx---xx--xx-xx--xx--xx-|
15--14--12---12-12-12-12---15---15-15-15-15---14---14-xx-14-14---14--14-15--14--12-|
-----------------------------------------------------------------------------------|  

       Im not goin theres a will in me, now it's gonna show    
-------------------------------------------------------------|
-------------------------------------------------------------|
--14-14-14-14---17---17-17-17-17---16---16-16-16-16---16--16-|
--xx-xx-xx-xx---xx---xx-xx-xx-xx---xx---xx-xx-xx-xx---xx--xx-|
--12-12-12-12---15---15-15-15-15---14---14-14-14-14---14--14-|
-------------------------------------------------------------|  

could be the end of me, n eve-ry-thing  I   know,                          ohhh,     
-----------------------------------------------------------------------------------|
-----------------------------------------------------------------------------------|
17--16--14---14-14-14-14---17---17-17-17-17---16---16-16-16-16---16--16-16--16--16-|
xx--xx--xx---xx-xx-xx-xx---xx---xx-xx-xx-xx---xx---xx-xx-xx-xx---xx--xx-xx--xx--xx-|
15--14--12---12-12-12-12---15---15-15-15-15---14---14-14-14-14---14--14-14--14--14-|
-----------------------------------------------------------------------------------| 


BRIDGE (DISTORTION ON)

There    might    be    more   than  you    believe   (There might be more than you believe)
------------------------------------------------------------------------------------------------|
------------------------------------------------------------------------------------------------|
17-17-17-17-17-17-17-17-16-16-16-16-16-16-16-16-19-19-19-19-19-19-19-19-19-19-19-19-19-19-19-19-| 
xx-xx-xx-xx-xx-xx-xx-xx-xx-xx-xx-xx-xx-xx-xx-xx-xx-xx-xx-xx-xx-xx-xx-xx-xx-xx-xx-xx-xx-xx-xx-xx-|
15-15-15-15-15-15-15-15-14-14-14-14-14-14-14-14-17-17-17-17-17-17-17-17-17-17-17-17-17-17-17-17-|
------------------------------------------------------------------------------------------------| 

There    might    be    more  than  you  can   see                                   But I won't
------------------------------------------------------------------------------------------------|
------------------------------------------------------------------------------------------------|
17-17-17-17-17-17-17-17-16-16-16-16-16-16-16-16-19-19-19-19-19-19-19-19-19-19-19-19-19-19-19-19-| 
xx-xx-xx-xx-xx-xx-xx-xx-xx-xx-xx-xx-xx-xx-xx-xx-xx-xx-xx-xx-xx-xx-xx-xx-xx-xx-xx-xx-xx-xx-xx-xx-|
15-15-15-15-15-15-15-15-14-14-14-14-14-14-14-14-17-17-17-17-17-17-17-17-17-17-17-17-17-17-17-17-|
------------------------------------------------------------------------------------------------|


OUTRO (CLEAN GUITAR - NO DISTORTION)

go                               Oh no I won't                  go         
----------------------------------------------------------------------------------------|
-----------------------0h1--------1p0------------------0---------0h1---------1p0--------|
--2---------0h2-------------2----------0-----2-------------0----------2-----------------|
------3----------3-------------3----------2------3------------2----------3--------2-----|
---------3----------3-------------------------------3--------------------------------3--|
----------------------------------------------------------------------------------------|

down.                            Yeah
---------------------------------------------------||        
------------------------0h1--------1p0-------------||          
---2---------0h2-------------2----------0-----2----|| 
-------3----------3-------------3----------2--2----||   END!   
----------3----------3-----------------------------||          
---------------------------------------------------|| 


________________________________________________________________________________________________
________________________________________________________________________________________________


|GUITAR 2|

INTRO (CLEAN GUITAR WITH SPECIAL EFFECT)

5~~~~(gets-louder)-(5)--5\3---------------------------------|
---------------------------------0--------------------------|
-------------------------------------------5---5------------|
--------------------------------------------------5---------|
-----------------------------3~~~~~~p0~~~~-----------3~~~~--|
------------------------------------------------------------|

--------------------------------------------------------|
--------------------------------------------------------|
--------------------4~~~~p0-----4~~~~(4)~~~h5--p2-------|
--------------------------------------------------------|
-----------------------------3-----------------------0--|
--------------------------------------------------------|     

(DISTORTION ON)
------------------------------------------------------|
------------------------------------------------------|
--------------------5---------5-----------------------|
7--5--3---------3---5---5-5-5-5-5-5---------5---5-----|
7--5--3---3-3-3-3-3-3---3-3-3-3-3-5---5-5-5-5-5-5---5-|
5--3--1---1-1-1-1-1---------------3---3-3-3-3-3-3---3-|    
          * * *   *     * * *   *     * * *   *     * 

                                                          (HOLD THIS NOTE)
---------------------------------------------------------------|
---------------------------------------------------------------|
--------------------5---------5--------------------------------|
7--5--3---------3---5---5-5-5-5-5-5---------5---5-----7--5--3~~|
7--5--3---3-3-3-3-3-3---3-3-3-3-3-5---5-5-5-5-5-5---5-7--5--3~~|
5--3--1---1-1-1-1-1---------------3---3-3-3-3-3-3---3-5--3--1~~|   
          * * *   *     * * *   *     * * *   *     * 

VERSE 1 (WITH DISTORTION)

  Lookin' back at the beginning of this,    and how life was
-----------------------------------------------------------------|
-----------------------------------------------------------------|
-----------------------------------------------------------------|
(3)~~~~-----------------------------------7~~~~------------------|
(3)~~~~-----------------------------------7~~~~------------------|
(1)~~~~-----------------------------------5~~~~------------------|     

  Just you and me and love and all of our friends,    Livin' life like an ocean
-----------------------------------------------------------------------------------|
-----------------------------------------------------------------------------------|
-----------------------------------------------------------------------------------|
3~~~~-----------------------------------------------7~~~~--------------------------|
3~~~~-----------------------------------------------7~~~~--------------------------|
1~~~~-----------------------------------------------5~~~~--------------------------|

  But now the currents slowly pullin me down, it's gettin' harder to breathe
-----------------------------------------------------------------------------|
-----------------------------------------------------------------------------|
-----------------------------------------------------------------------------|
-----------------------------------------------------------------------------|
3-3-3-3-3-3-3-3-3-3-3-3-3-3-3-3--------------7-7-7-7-7-7-7-7-7-7-7-7-7-7-7-7-|
1-1-1-1-1-1-1-1-1-1-1-1-1-1-1-1--------------5-5-5-5-5-5-5-5-5-5-5-5-5-5-5-5-|
* * * * * * * * * * * * * * * *              * * * * * * * * * * * * * * * * 

 It won't be too long and I'll be goin under, can you save me from this?
----------------------------------------------------------------------------|
----------------------------------------------------------------------------|
----------------------------------------------------------------------------|
----------------------------------------------------------------------------|
3-3-3-3-3-3-3-3-3-3-3-3-3-3-3-3-------------7-7-7-7-7-7-7-7-7-7-7-7-7-7-7-7-|
1-1-1-1-1-1-1-1-1-1-1-1-1-1-1-1-------------5-5-5-5-5-5-5-5-5-5-5-5-5-5-5-5-|
* * * * * * * * * * * * * * * *             * * * * * * * * * * * * * * * * 


CHORUS (WITH DISTORTION)

Cuz it's not my time, Im not goin, theres a fear in me, it's not showin
----------------------------------------------------------------|
----------------------------------------------------------------|
------------------------------5---------5-----------------------|
----------7--5--3---------3---5---5-5-5-5-5-5---------5---5-----|
----------7--5--3---3-3-3-3-3-3---3-3-3-3-3-5---5-5-5-5-5-5---5-|
----------5--3--1---1-1-1-1-1---------------3---3-3-3-3-3-3---3-|    
                    * * *   *     * * *   *     * * *   *     * 

This could be the end of me, and everythin I know        oww I won't
--------------------------------------------------------------------|
--------------------------------------------------------------------|
--------------------------5---------5-------------------------------|
------7--5--3---------3---5---5-5-5-5-5-5---------5---5-------------|
------7--5--3---3-3-3-3-3-3---3-3-3-3-3-5---5-5-5-5-5-5---5-5-5-5-5-|
------5--3--1---1-1-1-1-1---------------3---3-3-3-3-3-3---3-3-3-3-3-|   
                * * *   *     * * *   *     * * *   *     * * * * *


SOLO (CLEAN GUITAR - NO DISTORTION)

go
^0---0------0------------------------^0-----------------------------------------|
^1-------1-----1---------1------1----^1------1-----------------------1-----1----|
^0----------------0---0------0-----0-^2----------2-----2----------------1-------|
^2-----------------------------------^2---2---------2-----2------2------------2-|
^3-----------------------------------^0-----------------------0-----------------|
^0------------------------------------------------------------------------------|


VERSE 2 (CLEAN GUITAR - NO DISTORTION)

  I look ahead to all the plans that we made,   and the dreams that we had
^1--------------------------------------------^0----------------------------|
^1--------------------------------------------^1----------------------------|
^2--------------------------------------------^2----------------------------|
^3--------------------------------------------^2----------------------------|
^3--------------------------------------------^0----------------------------|
^1--------------------------------------------------------------------------|

  Im in a world that tries to thenem that away, owh but im takin them back
^1---------------------------------------------^0----------------------------|
^1---------------------------------------------^1----------------------------|
^2---------------------------------------------^2----------------------------|
^3---------------------------------------------^2----------------------------|
^3---------------------------------------------^0----------------------------|
^1---------------------------------------------------------------------------|

(WITH DISTORTION)
  Cuz all this time i've just been too blind to understand. what you matter to me
-------------------------------------------------------------------------------------------|
-------------------------------------------------------------------------------------------|
-------------------------------------------------------------------------------------------|
-------------------------------------------------------------------------------------------|
3-3-3-3-3-3-3-3-3-3-3-3-3-3-3-3----------------------------7-7-7-7-7-7-7-7-7-7-7-7-7-7-7-7-|
1-1-1-1-1-1-1-1-1-1-1-1-1-1-1-1----------------------------5-5-5-5-5-5-5-5-5-5-5-5-5-5-5-5-|
* * * * * * * * * * * * * * * *                            * * * * * * * * * * * * * * * * 

  My friends, this life we live its not what we have, it's what we believe in
------------------------------------------------------------------------------------|
------------------------------------------------------------------------------------|
------------------------------------------------------------------------------------|
------------------------------------------------------------------------------------|
3-3-3-3-3-3-3-3-3-3-3-3-3-3-3-3---------------------7-7-7-7-7-7-7-7-7-7-7-7-7-7-7-7-|
1-1-1-1-1-1-1-1-1-1-1-1-1-1-1-1---------------------5-5-5-5-5-5-5-5-5-5-5-5-5-5-5-5-|
* * * * * * * * * * * * * * * *                     * * * * * * * * * * * * * * * * 


CHORUS (WITH DISTORTION)

It's not my time, Im not goin, theres a fear in me, it's not showin
------------------------------------------------------------|
------------------------------------------------------------|
--------------------------5---------5-----------------------|
------7--5--3---------3---5---5-5-5-5-5-5---------5---5-----|
------7--5--3---3-3-3-3-3-3---3-3-3-3-3-5---5-5-5-5-5-5---5-|
------5--3--1---1-1-1-1-1---------------3---3-3-3-3-3-3---3-|    
                * * *   *     * * *   *     * * *   *     * 

This could be the end of me, and everythin I know        But 
-------------------------------------------------------------|
-------------------------------------------------------------|
--------------------------5---------5------------------------|
------7--5--3---------3---5---5-5-5-5-5-5---------5---5------|
------7--5--3---3-3-3-3-3-3---3-3-3-3-3-5---5-5-5-5-5-5---5--|
------5--3--1---1-1-1-1-1---------------3---3-3-3-3-3-3---3--|   
                * * *   *     * * *   *     * * *   *     * 

It's not my time, Im not goin, theres a will in me, now I know
------------------------------------------------------------|
------------------------------------------------------------|
--------------------------5---------5-----------------------|
------7--5--3---------3---5---5-5-5-5-5-5---------5---5-----|
------7--5--3---3-3-3-3-3-3---3-3-3-3-3-5---5-5-5-5-5-5---5-|
------5--3--1---1-1-1-1-1---------------3---3-3-3-3-3-3---3-|    
                * * *   *     * * *   *     * * *   *     * 

This could be the end of me, and everythin I know     oww but I wont
--------------------------------------------------------------------|
--------------------------------------------------------------------|
--------------------------5---------5-------------------------------|
------7--5--3---------3---5---5-5-5-5-5-5---------5---5-------------|
------7--5--3---3-3-3-3-3-3---3-3-3-3-3-5---5-5-5-5-5-5---5-5-5-5-5-|
------5--3--1---1-1-1-1-1---------------3---3-3-3-3-3-3---3-3-3-3-3-|   
                * * *   *     * * *   *     * * *   *     * * * * *

SOLO 2 (WITH DISTORTION)

go            oh     oh oh ohhh.                   I wont 
----------------------------------------------------------|
----------------------------------------------------------|
--------------5---------5---------------------------------|
3---------3---5---5-5-5-5-5-5---------5---5---------5---5-|
3---3-3-3-3-3-3---3-3-3-3-3-5---5-5-5-5-5-5---5-5-5-5-5-5-|
1---1-1-1-1-1---------------3---3-3-3-3-3-3---3-3-3-3-3-3-|   
    * * *   *     * * *   *     * * *   *     * * *   *

know
----------------------------------------------------------|
----------------------------------------------------------|
--------------5---------5---------------------------------|
3---------3---5---5-5-5-5-5-5---------5---5---------5---5-|
3---3-3-3-3-3-3---3-3-3-3-3-5---5-5-5-5-5-5---5-5-5-5-5-5-|
1---1-1-1-1-1---------------3---3-3-3-3-3-3---3-3-3-3-3-3-|   
    * * *   *     * * *   *     * * *   *     * * *   *


BRIDGE (WITH DISTORTION)

 There might be more than you believe (there might be more than you believe)
------------------------------------------------------|
------------------------------------------------------|
--------------5---5-5-5-5-----------------------------|
3---3-3-3-3---5---5-5-5-5---5---5-5-5-5---5---5-5-5-5-|
3---3-3-3-3---3---3-3-3-3---5---5-5-5-5---5---5-5-5-5-|
1---1-1-1-1-----------------3---3-3-3-3---3---3-3-3-3-|   

 There might be more than you can see                 But it's not my
-------------------------------------------------------P--|
-------------------------------------------------------A--|
--------------5---5-5-5-5------------------------------U--|
3---3-3-3-3---5---5-5-5-5------------------------------S--|
3---3-3-3-3---3---3-3-3-3-----------5-5-5-5-5-5-5-5-5--E--|
1---1-1-1-1-------------------------3-3-3-3-3-3-3-3-3--!--|   
                                    * * * * * * * * * 

CHORUS (WITH DISTORTION)

time, I wont go, theres a fear in my, it's not showin'                               
------------------------------------------------|
------------------------------------------------|
--------------5---------5-----------------------|
3---------3---5---5-5-5-5-5-5---------5---5-----|
3---3-3-3-3-3-3---3-3-3-3-3-5---5-5-5-5-5-5---5-|
1---1-1-1-1-1---------------3---3-3-3-3-3-3---3-|   
    * * *   *     * * *   *     * * *   *     * 

This could be the end of me, and everythin I know        But 
-------------------------------------------------------------|
-------------------------------------------------------------|
--------------------------5---------5------------------------|
------7--5--3---------3---5---5-5-5-5-5-5---------5---5------|
------7--5--3---3-3-3-3-3-3---3-3-3-3-3-5---5-5-5-5-5-5---5--|
------5--3--1---1-1-1-1-1---------------3---3-3-3-3-3-3---3--|   
                * * *   *     * * *   *     * * *   *     * 

It's not my time, Im not goin, theres a will in me, now it's gonna show
------------------------------------------------------------|
------------------------------------------------------------|
--------------------------5---------5-----------------------|
------7--5--3---------3---5---5-5-5-5-5-5---------5---5-----|
------7--5--3---3-3-3-3-3-3---3-3-3-3-3-5---5-5-5-5-5-5---5-|
------5--3--1---1-1-1-1-1---------------3---3-3-3-3-3-3---3-|    
                * * *   *     * * *   *     * * *   *     * 

This could be the end of me, and everythin I know     oww but I wont
--------------------------------------------------------------------|
--------------------------------------------------------------------|
--------------------------5---------5-------------------------------|
------7--5--3---------3---5---5-5-5-5-5-5---------5---5-------------|
------7--5--3---3-3-3-3-3-3---3-3-3-3-3-5---5-5-5-5-5-5---5-5-5-5-5-|
------5--3--1---1-1-1-1-1---------------3---3-3-3-3-3-3---3-3-3-3-3-|   
                * * *   *     * * *   *     * * *   *     * * * * *

BRIDGE (WITH DISTORTION)

 There might be more than you believe (there might be more than you believe)
------------------------------------------------------|
------------------------------------------------------|
--------------5---5-5-5-5-----------------------------|
3---3-3-3-3---5---5-5-5-5---5---5-5-5-5---5---5-5-5-5-|
3---3-3-3-3---3---3-3-3-3---5---5-5-5-5---5---5-5-5-5-|
1---1-1-1-1-----------------3---3-3-3-3---3---3-3-3-3-|   

 There might be more than you can see                  But I wont                
--------------------------------------------------------------|
--------------------------------------------------------------|
--------------5---5-5-5-5-------------------------------------|
3---3-3-3-3---5---5-5-5-5-----------5---5-5-5-5---5---5-5-5-5-|
3---3-3-3-3---3---3-3-3-3-----------5---5-5-5-5---5---5-5-5-5-|
1---1-1-1-1-------------------------3---3-3-3-3---3---3-3-3-3-|   


OUTRO (WITH DISTORTION)

go                        Oh no I wont,   go
------------------------------------------------------------------|
------------------------------------------------------------------|
------------------------------------------------------------------|
--3~~~~----------------------------7~~~~--------------------------|
--3~~~~----------------------------7~~~~--------------------------|
--1~~~~----------------------------5~~~~--------------------------|

down                           Yeah. 
--------------------------------------------------------------------||
--------------------------------------------------------------------||
--------------------------------------------------------------------||
----3~~~~----------------------------7~~~~--------------------------||   END!!
----3~~~~----------------------------7~~~~--------------------------||
----1~~~~----------------------------5~~~~--------------------------||


PLEASE RATE AND COMMENT. THANK YOU :)

______________________________________________________________________

comments
print report bad tab
3 comments total.
0 reply
bhan183 wrote on October 23 2008, 12:16 pm

PERFECT!
Thank you!!

0 reply
wtflolbbq wrote on June 23 2009, 07:06 pm

wonderful mate, 5*s

0 reply
Darka22 wrote on July 26 2009, 10:09 am

Great Job!

U did well XD

I want to post or [tab]
guest
You may want to rate the tab now too:
select rating
Please do not post tabs as comments. Select "correction" instead!