Oops, an error
Loading. Please wait.

Its The Only One Youve Got Tab

version 1
version 1

Whole song

23,122 views 1 this week
5 commentsread comments
1 2 3 4 5
x 13
add to favorites
launch autoscroll
font size
0
reset
how to read this tab
guitar tuner
Autoscroll
slow
fast
+/-
esc
set tempo
stop
Help us to improve Ultimate-Guitar.com Take our survey!
×
Author
Song:It's the Only One You've Got
Album:3 Doors Down
Artist:3 Doors Down
Guitar Tabber:Ryan Manongdo/18/Vancouver,Ca
              rhyezkie@gmail.com(gtalk)
              no_falter0x@yahoo.com(YM,friendster,facebook&myspace)

For any comments,questions or suggestions,just post a comment or PM me.Pilipino Rules!!

Gtr.Legends:
b - bend
p - pull-off
h - hammer-on
~ - let it ring
. - palm muting

Gtr.Tuning:Normal(Standard)

Verse 1:How do you know...
e|-0000-0000-2222-2222-0----0000-0000-2222-2222---|
B|-2222-0000-2222-3333--3---2222-0000-2222-2222---|
G|-2222-1111-2222-2222------2222-1111-2222-2222---| 2x
D|-2222-2222-4444-0000------2222-2222-4444-4444---|
A|-0000-2222-4444-----------0000-2222-4444-4444---|
E|------0000-2222----------------0000-2222-2222---|

Pre-Chorus:Have to try...
Gtr.1
e|-2222-0000---2222-0000-0000---|
B|-2222-2222---2222-2222-0000---|
G|-2222-2222---2222-2222-1111---|
D|-4444-2222---4444-2222-2222---|
A|-4444-0000---4444-0000-2222---|
E|-2222--------2222------0000---|

Gtr.2 Enters before chorus:
e|-----------------|
B|-10---10---------|
G|----9----9-7/9---|
D|-----------------|
A|-----------------|
E|-----------------|

Chorus:You hide behind...
Gtr.1
e|------------------------------------------------------------------------------------|
B|------------------------------------------------------------------------------------|
G|-7777-------------------7777------------------7777-------------------7777-----------|
D|-7777-7777-2222-44-77---7777-7777-2222-2222---7777-7777-2222-44-77---7777-7777-2~---|
A|-5555-7777-2222-44-77---5555-7777-2222-2222---5555-7777-2222-44-77---5555-7777-2~---|
E|------5555-0000-22-55--------5555-0000-0000--------5555-0000-22-55--------5555-0~---|

Gtr.2
e|-----11~~---------------------------11~----------------------------------11~----------------------------------11~-------------|
B|-10~--------9~~-9h10-12--10p9----10------10~~--9~~---9h10-12--10p9-----9-------10~~--9~~--9h10-12--10p9----10-----10~~--9~~---|
G|------------------------------9b-----------------------------------9b-----------------------------------9b--------------------|
D|------------------------------------------------------------------------------------------------------------------------------|
A|------------------------------------------------------------------------------------------------------------------------------|
E|------------------------------------------------------------------------------------------------------------------------------|

Verse 2:Memories have let you...
Play Verse 1

Repeat Pre-Chorus:

Chorus:
e|-------------------------------------------------------------------------------------|
B|-------------------------------------------------------------------------------------|
G|-7777-------------------7777------------------7777-------------------7777------------|
D|-7777-7777-2222-44-77---7777-7777-2222-2222---7777-7777-2222-44-77---7777-7777-222---|
A|-5555-7777-2222-44-77---5555-7777-2222-2222---5555-7777-2222-44-77---5555-7777-222---|
E|------5555-0000-22-55--------5555-0000-0000--------5555-0000-22-55--------5555-000---|

Bridge:oh,what will it take...
e|----------------------------------------------------------------------------------------------|
B|---------------------------------------------------------------------------9-10---10-9-9------|
G|------7----------------7-------------------7-------------7777----------------------------9b---|
D|-4444-7-7777-777--4444-7-7777-2222----4444-7-7777-2222---7777-7777-2~--2----------------------|
A|-4444-5-7777-777--4444-5-7777-2222----4444-5-7777-2222---5555-7777-2~--2----------------------|
E|-2222---5555-555--2222---5555-0000----2222---5555-0000--------5555-0~--0----------------------|
                                                                         .

Repeat Chorus:

Last Chord:
Gtr.1
e|------|
B|------|
G|-2~---|
D|-2~---|
A|-0~---|
E|------|

Gtr.2
e|-----0-------------------------0------------0--------------------------------------|
B|-------0------0------2-------3---3-3--------0-0------0-----------------------------|
G|---2---2------1------2-----2-------2------2---2------1--------2---------2-----2~---|
D|--------------2------4---0---------------------------2------4---4-----4---2---2~---|
A|-0----------2------4--------------------0----------2------4---------4---------0~---|
E|----------0------2-------------------------------0------2---------2----------------|

End...


It's the Only One You've Got Lyrics:

Verse 1:
How do you know where your going,
When you don't know where you've been?
You hide the shame that your not showing,
And you wont let anyone in.
A crowed street can be a quiet place when your walking alone.
And now you think that you're the only one
Who doesn't

Pre-Chorus:
have to try.
And you wont have to feel,
If you're afraid to fight,
Then I guess you never will.

Chorus:
You hide behind your walls of 'maybe nevers'
Forgetting that theres something more,
Then just knowing better.
Your mistakes do not define you now
They tell you who you're not.
You've got to live this life your given,
like its the only you've got.

Verse 2:
Memories have left you broken.
And the scars have never healed.
The emptiness in you is growing.
With so little left to feel.
You're scared to look back on the days before...
You're too tired to move on.
And now you think that you're the only one
Who doesn't

Pre-Chorus 2:
have to try.
And you wont have to feel,
If you're afraid to fly,
Then I guess you never will.

You hide behind your walls of 'maybe nevers'
Forgetting that theres something more,
Then just knowing better.
Your mistakes do not define you now
They tell you who you're not.
You've got to live this life your given,
like its the only you've got.

Bridge:
Oh, what will it take?
Oh, to get you to say that I'll try.
And what would you say if this was the last day of your life?

You hide behind your walls of 'maybe nevers'
Forgetting that theres something more,
Then just knowing better.
Your mistakes do not define you now
They tell you who you're not.
You've got to live this life your given,
like its the only you've got.

You hide behind your walls of 'maybe nevers'
Forgetting that theres something more,
Then just knowing better.
Your mistakes do not define you now
They tell you who you're not.
You've got to live this life your given,
like its the only you've got.
Suggest correction
comments
print report bad tab
5 comments total. Showing first comments.
+4 reply
GrimmOffender 10 May 24, 2008 03:09 PM

really good tab on this song the only thing I noticed was at the end of the bridge the little riff you have up doesn't quite sound like the recording the way I've got it down sounds more on the mark I think and its just

Bridge Riff:
e|-------------------------|
B|-------9-10---10-10-9----|
G|---------------------9---|
D|-------------------------|
A|-------------------------|
E|-~-----------------------|

Hope that helps
.

0 reply
MitCi 10 Jun 03, 2008 08:24 AM

Soo expressive song..!!!..excellent tab..!!

0 reply
harisgp 92 Jun 16, 2008 07:36 AM

great good job..

guest
You may want to rate the tab now too:
select rating
Wanna post a correction for this tab? Suggest correction