Oops, an error
Loading. Please wait.

Kryptonite Tab

version 1
90,598 views 186 this week
7 commentsread comments
1 2 3 4 5
excellent!
x 28
add to favorites
launch autoscroll
font size
0
reset
how to read this tab
guitar tuner
Autoscroll
slow
fast
+/-
esc
set tempo
stop
Help us to improve Ultimate-Guitar.com Take our survey!
×
Author
Difficulty
intermediate
3 Doors Down - Krytonite. ok this is it hopefully after searching and listening :/ phew
this was hard. the strumming for the bridge and all that stuff is DDUUDU

[Verse]
(clean)
e|----------------------------------------------------|
b|-----------3--------------------------0-------------|
g|---------4---4----0---------0-------2-----Repeat 3x-|
d|------4--------4----------0-------2-----------------|
a|---2--------------------2-------0-------------------|
E|----------------------3-----------------------------|

e|-------------------------------0--------------------|
b|---------3-----------------------0------------------|
g|------4---4---0---------0----------0----------------|
d|---4--------4---------0-----------------------------|
a|-2------------------2-------------------------------|
E|------------------3---------------------------------|


[Bridge]
(clean, strummed)
e|--0--0--0--0--3--3--0--0--|
b|--3--3--3--3--3--3--0--0--|
g|--4--4--4--4--0--0--2--2--|
d|--4--4--4--4--0--0--2--2--|
a|--2--2--2--2--2--2--2--2--|
E|--0--0--0--0--3--3--0--0--|

e|--0--0--0--0--3--3--0--0--|
b|--3--3--3--3--3--3--0--0--|
g|--4--4--4--4--0--0--2--2--|
d|--4--4--4--4--0--0--2--2--|
a|--2--2--2--2--2--2--2--2--|
E|--0--0--0--0--3--3--0--0--|


[Verse]
(clean)
e|-----------------------------------------|
b|-----------3--------------------------0--|
g|---------4---4----0---------0-------2----|
d|------4--------4----------0-------2------|
a|---2--------------------2-------0--------|
E|----------------------3------------------|

e|----------------------------------0------|
b|---------3--------------------------0----|
g|------4---4---0---------0----------------|
d|---4--------4---------0------------------|
a|-2------------------2--------------------|
E|------------------3----------------------|

e|---------------------------------------------------------------------|
b|-----------3--------------------------0------------------------------|
g|---------4---4----0---------0-------2--------------------------------|
d|------4--------4----------0-------2----------------------------------|
a|---2--------------------2-------0------------------------------------|
E|----------------------3----------------------------------------------|

e|-------------------------------0-------------------------------------|
b|---------3-----------------------0-----------------------------------|
g|------4---4---0---------0----------0---------------------------------|
d|---4--------4---------0----------------------------------------------|
a|-2------------------2------------------------------------------------|
E|------------------3--------------------------------------------------|


[Chorus]
(distortion)
e|---------------------------------------------------------------------|
b|---------------------------------------------------------------------|
g|---------------------------------------------------------------------|
d|--4--4-4--4-4--4-4--4------------------------------------------------|
a|--2--2-2--2-2--2-2--2-5--5-5--5-7--7-7--7----------------------------|
E|----------------------3--3-3--3-5--5-5--5----------------------------|

e|---------------------------------------------------------------------|
b|---------------------------------------------------------------------|
g|---------------------------------------------------------------------|
d|--4--4-4--4-4--4-4--4------------------------------------------------|
a|--2--2-2--2-2--2-2--2-3--3-3--3-5--5-5--5----------------------------|
E|----------------------1--1-1--1-3--3-3--3----------------------------|

e|---------------------------------------------------------------------|
b|---------------------------------------------------------------------|
g|---------------------------------------------------------------------|
d|--4--4-4--4-4--4-4--4------------------------------------------------|
a|--2--2-2--2-2--2-2--2-5--5-5--5-7--7-7--7----------------------------|
E|----------------------3--3-3--3-5--5-5--5----------------------------|

e|---------------------------------------------------------------------|
b|---------------------------------------------------------------------|
g|---------------------------------------------------------------------|
d|--4--4-4--4-4--4-4--4------------------------------------------------|
a|--2--2-2--2-2--2-2--2-3----------5-----------------------------------|
E|----------------------1----------3-----------------------------------|


[Bridge]
(clean, strummed)
e|--0--0--0--0--3--3--0--0---------------------------------------------|
b|--3--3--3--3--3--3--0--0---------------------------------------------|
g|--4--4--4--4--0--0--2--2---------------------------------------------|
d|--4--4--4--4--0--0--2--2---------------------------------------------|
a|--2--2--2--2--2--2--2--2---------------------------------------------|
E|--0--0--0--0--3--3--0--0---------------------------------------------|

e|--0--0--0--0--3--3--0--0---------------------------------------------|
b|--3--3--3--3--3--3--0--0---------------------------------------------|
g|--4--4--4--4--0--0--2--2---------------------------------------------|
d|--4--4--4--4--0--0--2--2---------------------------------------------|
a|--2--2--2--2--2--2--2--2---------------------------------------------|
E|--0--0--0--0--3--3--0--0---------------------------------------------|


[Verse]
(clean)
e|---------------------------------------------------------------------|
b|-----------3--------------------------0------------------------------|
g|---------4---4----0---------0-------2-----Repeat 3x------------------|
d|------4--------4----------0-------2----------------------------------|
a|---2--------------------2-------0------------------------------------|
E|----------------------3----------------------------------------------|

e|-------------------------------0-------------------------------------|
b|---------3-----------------------0-----------------------------------|
g|------4---4---0---------0----------0---------------------------------|
d|---4--------4---------0----------------------------------------------|
a|-2------------------2------------------------------------------------|
E|------------------3--------------------------------------------------|


[Chorus]
(distortion)
e|---------------------------------------------------------------------|
b|---------------------------------------------------------------------|
g|---------------------------------------------------------------------|
d|--4--4-4--4-4--4-4--4------------------------------------------------|
a|--2--2-2--2-2--2-2--2-5--5-5--5-7--7-7--7----------------------------|
E|----------------------3--3-3--3-5--5-5--5----------------------------|

e|---------------------------------------------------------------------|
b|---------------------------------------------------------------------|
g|---------------------------------------------------------------------|
d|--4--4-4--4-4--4-4--4------------------------------------------------|
a|--2--2-2--2-2--2-2--2-3--3-3--3-5--5-5--5----------------------------|
E|----------------------1--1-1--1-3--3-3--3----------------------------|

e|---------------------------------------------------------------------|
b|---------------------------------------------------------------------|
g|---------------------------------------------------------------------|
d|--4--4-4--4-4--4-4--4------------------------------------------------|
a|--2--2-2--2-2--2-2--2-5--5-5--5-7--7-7--7----------------------------|
E|----------------------3--3-3--3-5--5-5--5----------------------------|

e|---------------------------------------------------------------------|
b|---------------------------------------------------------------------|
g|---------------------------------------------------------------------|
d|--4--4-4--4-4--4-4--4------------------------------------------------|
a|--2--2-2--2-2--2-2--2-3----------5-----------------------------------|
E|----------------------1----------3-----------------------------------|


[Solo]
(distortion)
e|-----------------------------------------------------------------------------------|
b|-----------------------------------------------------------------------------------|
g|-----------------------------------------------------------------------------------|
d|------------------2-----------------------------0-2-0-2-0-2-0-2--------------------|
a|--2--4--5--4--5-4----5--4-5-4-0-2--0--2--0--2-0----------------4-5-4-5-4-5-4-5-----|
E|-----------------------------------------------------------------------------------|

e|-----------------------------------------------------------------------------------|
b|-----------------------------------------------------------------------------------|
g|-----------------------------------------------------------------------------------|
d|------------------2-----------------------------0-2-0-2-0-2-0-2--------------------|
a|--2--4--5--4--5-4----5--4-5-4-0-2--0--2--0--2-0----------------4-5-4-5-4-5-4-5-2---|
E|-----------------------------------------------------------------------------------|


[Refrain]
(clean)
e|-------------0----------3--------------------------------------------|
b|--3----------2----------3--------------------------------------------|
g|--4----------2----------0--------------------------------------------|
d|--4----------2----------0--------------------------------------------|
a|--2----------0----------2--------------------------------------------|
E|------------------------3--------------------------------------------|


[Chorus]
(distortion)
e|---------------------------------------------------------------------|
b|---------------------------------------------------------------------|
g|---------------------------------------------------------------------|
d|--4--4-4--4-4--4-4--4------------------------------------------------|
a|--2--2-2--2-2--2-2--2-5--5-5--5-7--7-7--7----------------------------|
E|----------------------3--3-3--3-5--5-5--5----------------------------|

e|---------------------------------------------------------------------|
b|---------------------------------------------------------------------|
g|---------------------------------------------------------------------|
d|--4--4-4--4-4--4-4--4------------------------------------------------|
a|--2--2-2--2-2--2-2--2-3--3-3--3-5--5-5--5----------------------------|
E|----------------------1--1-1--1-3--3-3--3----------------------------|

e|--------------------------------------------|
b|--------------------------------------------|
g|--------------------------------------------|
d|--4--4-4--4-4--4-4--4-----------------------|
a|--2--2-2--2-2--2-2--2-5--5-5--5-7--7-7--7---|
E|----------------------3--3-3--3-5--5-5--5---|

e|-------------------------------------------|
b|-------------------------------------------|
g|-------------------------------------------|
d|--4--4-4--4-4--4-4--4----------------------|
a|--2--2-2--2-2--2-2--2-3----------5---------|
E|----------------------1----------3---------|


[Outro]
(distortion)
e|-------------------------------------------------------------------------------------|
b|-------------------------------------------------------------------------------------|
g|-------------------------------------------------------------------------------------|
d|------------------2-----------------------------0-2-0-2-0-2-0-2----------------------|
a|--2--4--5--4--5-4----5--4-5-4-0-2--0--2--0--2-0----------------4-5-4-5-4-5-4-5-------|
E|-------------------------------------------------------------------------------------|

e|-------------------------------------------------------------------------------------|
b|-------------------------------------------------------------------------------------|
g|-------------------------------------------------------------------------------------|
d|------------------4--2---------------------------0-2-0-2-0-2-0-2---------------------|
a|--2--4--5--4--5-4-------5--4-5-0-2--0--2--0--2-0----------------4-5-4-5-4-5-4-5--2---|
E|-------------------------------------------------------------------------------------|


************************************

| x  Dead note

************************************
Suggest correction
What's this?
You can suggest a correction to this tab. Community and Mods will review your correction and vote to approve or reject it.
comments
print report bad tab
7 comments total. Showing first comments.
+4 reply
Creeper113 225 wrote on October 5 2010, 06:18 pm

distortion on acoustic?

-1 reply
jdd55 33 wrote on October 21 2010, 10:41 pm

Instead of 1/3 to 3/5 it's 0/2 to 2/4 which is E to F#. That's at the end of the distortion part. And, yes, it's distortion on acoustic. Use a pedal dummy! Sheesh!

+2 reply
jesusfreak1995 28 wrote on November 2 2010, 02:35 pm

I agree,the whole point of playing it acoustic is that it is clean and natural. The distortion part is stupid

guest
You may want to rate the tab now too:
select rating
Please do not post tabs as comments. Select "correction" instead!