Oops, an error
Loading. Please wait.
We have an official Kryptonite tab made by UG professional guitarists. Check out the tab »
×
232,907 views 126 this week
10 commentsread comments
1 2 3 4 5
x 133
add to favorites
launch autoscroll
font size
0
reset
how to read this tab
guitar tuner
backing track
0:00
0:00
Autoscroll
slow
fast
+/-
esc
set tempo
stop
e|-----------------------------------------------|
B|--------3-------------------------0------------|
G|-----4----4----0---------0------2--------------| x2
D|---4--------4---------0-------2----------------|      
A|-2-----------------2---------0-----------------|
E|-----------------3-----------------------------|

e|-------------------------0-----------------|
B|-------3-------------------2---------------|
G|-----4---4---0-------0-------2-------------|
D|---4-------4-------0-----------------------|
A|-2---------------2-----0-------------------|
E|---------------3---------------------------|
Suggest correction
comments
print report bad tab
10 comments total. Showing first comments.
+2 reply
MARK THE DUDE 10 Feb 24, 2002 07:00 PM

DUDE THIS IS MINT KEEP TABIN!!!!!!!!

+2 reply
cohknut2 0 Feb 24, 2002 07:00 PM

really sweet tab no dam good tab keep tabin.

+2 reply
HobG0bblin 10 Mar 01, 2002 07:00 PM

Hard to switch back to first part :(

guest
You may want to rate the tab now too:
select rating
Wanna post a correction for this tab? Suggest correction