Oops, an error
Loading. Please wait.

Kryptonite Bass Tab

version 2
version 2
9,060 views 1 this week
1 commentread comment
1 2 3 4 5
please rate
add to favorites
launch autoscroll
font size
0
reset
guitar tuner
Tab Pro tools
  • play this tab
  • loop segment
  • change instrument
  • show fretboard
  • metronome
×
Best way to learn
"Kryptonite"
Autoscroll
slow
fast
+/-
esc
set tempo
stop
Contributor
3 Doors Down
Kryptonite

Tunning:EADG

Intro
G-----------------|
D-----------------|  follow the guitar
A-2~----3~----0~--|
E-----------------|

1st Verse  (0:19)
G-----------------|
D-----------------|   X4
A-2~----3~----0~--|
E-----------------|

(0:39, 1:27)
G------------------------------------------------------|
D------------------------------------------------------|
A-2--2--2-2-2---2--2--2-2-0----------------0--0--0--0--|
E-----------------------------3--3--3--3---------------|

2nd and 3rd Verses  (0:49, 1:37)
G-----------------|
D-----------------|   X4
A-2~----3~----0~--|
E-----------------|

Chorus  (1:08, 1:56, 3:04)
G-------------|--r--|------------------------------------|
D-------------|--e--|----------------------------  ------|
A-2--2--2-2-2-|--s--|---------------0--0---0--0--   -----|
E-------------|--t--|-3--3---3--3----------------    ----| X2
                                                     |
G-------------|--r--|-----------------------------  ---|
D-------------|--e--|----------------------------- ----|
A-2--2--2-2-2-|--s--|----------------------------------|
E-------------|--t--|-0--0-0-0--0-0---2--2--2--2-------|

Bass Fill  (1:44, 1:54)
G-------------|
D-------------|
A-------------|
E-0~----2~----|

Guitar Solo  (2:16)
G------------------------|
D----------------- ------|
A-2~----------0~--  -----|
E-------3~--------   ----| X2
                     |
G-----------------  ---|
D----------------- ----|
A-2~-------------------|
E-------0~----2~-------|

Thats it, this song is very easy so you shouldnt have any problems.
Just follow the times I wrote out for you and you should be fine.

~gimptehpimp@gmail.com
comments
We did not receive enough feedback on this tab! Please rate:
print report bad tab
1 2 3 4 5
1 comment total.
0 reply
bassman2010 wrote on March 22 2008, 08:40 pm

Srry but you wasted your time with this it is totally wrong

I want to post or [tab]
guest
You may want to rate the tab now too:
select rating
Please do not post tabs as comments. Select "correction" instead!