Oops, an error
Loading. Please wait.

Kryptonite Bass Tab

version 4
version 4
20,100 views 21 this week
2 commentsread comments
1 2 3 4 5
x 15
add to favorites
launch autoscroll
font size
0
reset
guitar tuner
Autoscroll
slow
fast
+/-
esc
set tempo
stop
Help us to improve Ultimate-Guitar.com Take our survey!
×
Author
Difficulty
novice
Intro

--------|--------|
--------|--------|
--------|--------|
--------|--------|			2x

--------|--------|
--------|--------|
2-------|----0---|
--------|3-------|			2x

Verse

--------|--------|
--------|--------|
2-------|----0---|
--------|3-------|			4x

Interlude 1
----------------|----------------|
----------------|----------------|
2-2-2-2-2-2-2-2-|----------------|
----------------|3-3-3-3-5-5-5-5-|	2x

Verse

--------|--------|
--------|--------|
2-------|----0---|
--------|3-------|			4x

Chorus 1
----------------|-----------------|
----------------|-----------------|
2-222-222-222-22|--------0-000-00-|
----------------|3-333-33---------|

----------------|--------------------|
----------------|--------------------|
2-222-222-222-22|--------------------|
----------------|0-000-00-2-222-22---|

----------------|-----------------|
----------------|-----------------|
2-222-222-222-22|--------0-000-00-|
----------------|3-333-33---------|

----------------|--------------------|
----------------|--------------------|
2-222-222-222-22|--------------------|
----------------|0-000-00-2-222-22---|

Interlude
----------------|----------------|
----------------|----------------|
2-2-2-2-2-2-2-2-|----------------|
----------------|3-3-3-3-5-5-5-5-|	2x

Verse

--------|--------|
--------|--------|
2-------|----0---|
--------|3-------|		4x

Chorus 1
----------------|-----------------|
----------------|-----------------|
2-222-222-222-22|--------0-000-00-|
----------------|3-333-33---------|

----------------|-----------------|
----------------|-----------------|
2-222-222-222-22|-----------------|
----------------|0-000-002-222-22-|

----------------|-----------------|
----------------|-----------------|
2-222-222-222-22|--------0-000-00-|
----------------|3-333-33---------|

----------------|-----------------|
----------------|-----------------|
2-222-222-222-22|-----------------|
----------------|0-000-002-222-22-|

Solo
----------------|-----------------|
----------------|-----------------|
2-2-2-2-2-2-2-2-|-----------------|
----------------|3-3-3-3-5-5-5-5--|

----------------|----------------|
----------------|----------------|
2-2-2-2-2-2-2-2-|----------------|
----------------|0-0-0-0-2-2-2-2-|

----------------|----------------|
----------------|----------------|
2-2-2-2-2-2-2-2-|----------------|
----------------|3-3-3-3-5-5-5-5-|

----------------|----------------|
----------------|----------------|
2-2-2-2-2-2-2-2-|----------------|
----------------|0-0-0-0-2-2-2-2-|

Interlude 2
----------------|----------------|
----------------|----------------|
----------------|----------------|
7-7-7-7-7-7-7-7-|5-5-5-5-5-5-5-5-|	2x

Chorus 2
----------------|----------------|
----------------|----------------|
----------------|----------------|
7-7-7-7-7-7-7-7-|5-5-5-5-5-5-5-5-|	4x

Chorus 1
----------------|-----------------|
----------------|-----------------|
2-222-222-222-22|--------0-000-00-|
----------------|3-333-33---------|

----------------|-----------------|
----------------|-----------------|
2-222-222-222-22|-----------------|
----------------|0-000-002-222-22-|

----------------|-----------------|
----------------|-----------------|
2-222-222-222-22|--------0-000-00-|
----------------|3-333-33---------|

----------------|-----------------|
----------------|-----------------|
2-222-222-222-22|-----------------|
----------------|0-000-002-222-22-|

Outro
----------------|----------------|
----------------|----------------|
2-2-2-2-2-2-2-2-|----------------|
----------------|3-3-3-3-5-5-5-5-|

----------------|----------------|
----------------|----------------|
2-2-2-2-2-2-2-2-|----------------|
----------------|0-0-0-0-2-2-2-2-|

------------|------------|
------------|------------|
22-22-22-22-|------------|
------------|33-33-55-55-|

------------|------------|
------------|------------|
22-22-22-22-|------------|
------------|00-00-22-22-|

------------|------------|
------------|------------|
-2----------|------------|
------------|------------|
Suggest correction
comments
print report bad tab
2 comments total.
+1 reply
Kaseke 397 Jan 14, 2014 04:38 PM

Last verse would actually be

--------|--------|--------|--------|
--------|--------|--------|--------|
2-------|----0---|2-------|--------|
--------|3-------|--------|0---3---| 2x

and this part here...

Interlude 2
----------------|----------------|
----------------|----------------|
----------------|----------------|
7-7-7-7-7-7-7-7-|5-5-5-5-3-3-3-3-| 2x

Chorus 2
----------------|----------------|
----------------|----------------|
----------------|----------------|
7-7-7-7-7-7-7-7-|5-5-5-5-3-3-3-3-| 4x

otherwise this tab is fine

0 reply
dvdvonschrottky 10 Apr 24, 2015 02:38 PM

Second interlude:

Change to plucking on 3rd fret of 1st string (E) halfway through the 2nd, 4th and 6th bars.

guest
You may want to rate the tab now too:
select rating
Wanna post a correction for this tab? Suggest correction