Oops, an error
Loading. Please wait.
8,642 views 6 this week
no commentswrite comment
1 2 3 4 5
x 8
add to favorites
launch autoscroll
font size
0
reset
how to read this tab
guitar tuner
backing track
0:00
0:00
×
Best way to learn
"Kryptonite"
Autoscroll
slow
fast
+/-
esc
set tempo
stop
3 Doors Down
Kryptonite
Rcihard Ycasiano
richeez@hotmial.com

[Verse]
 (clean)
e|-------------------------------------------------------------------------|
B|-----------3-----------------------------0-------------------------------|
G|---------4---4----0---------0-------2-----Repeat 3x----------------------|
D|------4--------4----------0-------2--------------------------------------|
A|---2--------------------2-------0----------------------------------------|
E|----------------------3--------------------------------------------------|

e|-------------------------------0-------------------------------------|
B|---------3-----------------------0-----------------------------------|
G|------4---4---0---------0----------0---------------------------------|
D|---4--------4---------0----------------------------------------------|
A|-2------------------2------------------------------------------------|
E|------------------3--------------------------------------------------|

[Bridge]
 (clean, strummed)
e|--0--0--0--0--3--3--0--0---------------------------------------------|
B|--3--3--3--3--3--3--0--0---------------------------------------------|
G|--4--4--4--4--0--0--2--2---------------------------------------------|
D|--4--4--4--4--0--0--2--2---------------------------------------------|
A|--2--2--2--2--2--2--2--2---------------------------------------------|
E|--0--0--0--0--3--3--0--0---------------------------------------------|

e|--0--0--0--0--3--3--0--0---------------------------------------------|
B|--3--3--3--3--3--3--0--0---------------------------------------------|
G|--4--4--4--4--0--0--2--2---------------------------------------------|
D|--4--4--4--4--0--0--2--2---------------------------------------------|
A|--2--2--2--2--2--2--2--2---------------------------------------------|
E|--0--0--0--0--3--3--0--0---------------------------------------------|

[Verse]
 (clean)
e|-------------------------------------------------------------------------|
B|-----------3-----------------------------0-------------------------------|
G|---------4---4----0---------0-------2------------------------------------|
D|------4--------4----------0-------2--------------------------------------|
A|---2--------------------2-------0----------------------------------------|
E|----------------------3--------------------------------------------------|

e|----------------------------------0----------------------------------|
B|---------3--------------------------0--------------------------------|
G|------4---4---0---------0--------------------------------------------|
D|---4--------4---------0----------------------------------------------|
A|-2------------------2------------------------------------------------|
E|------------------3--------------------------------------------------|

e|------------------------------------------------------------------------|
B|-----------3----------------------------0-------------------------------|
G|---------4---4----0---------0-------2-----------------------------------|
D|------4--------4----------0-------2-------------------------------------|
A|---2--------------------2-------0---------------------------------------|
E|----------------------3-------------------------------------------------|


e|-------------------------------0-------------------------------------|
B|---------3-----------------------0-----------------------------------|
G|------4---4---0---------0----------0---------------------------------|
D|---4--------4---------0----------------------------------------------|
A|-2------------------2------------------------------------------------|
E|------------------3--------------------------------------------------|

[Chorus]
 (distortion)
e|----------------------------------------------------------------------------|
B|----------------------------------------------------------------------------|
G|-------------------------------------------Repeat 3x------------------------|
D|--4--4-4--4-4--4-4--4-------------------------------------------------------|
A|--2--2-2--2-2--2-2--2-5--5-5--5-7--7-7--7-----------------------------------|
E|----------------------------3--3-3--3-5--5-5--5-----------------------------|

e|----------------------------------------------------------------------------|
B|----------------------------------------------------------------------------|
G|----------------------------------------------------------------------------|
D|--4--4-4--4-4--4-4--4-------------------------------------------------------|
A|--2--2-2--2-2--2-2--2-5----------7------------------------------------------|
E|----------------------------3----------5------------------------------------|

[Bridge]
 (claen, strummed)
e|--0--0--0--0--3--3--0--0---------------------------------------------|
B|--3--3--3--3--3--3--0--0---------------------------------------------|
G|--4--4--4--4--0--0--2--2---------------------------------------------|
D|--4--4--4--4--0--0--2--2---------------------------------------------|
A|--2--2--2--2--2--2--2--2---------------------------------------------|
E|--0--0--0--0--3--3--0--0---------------------------------------------|

e|--0--0--0--0--3--3--0--0---------------------------------------------|
B|--3--3--3--3--3--3--0--0---------------------------------------------|
G|--4--4--4--4--0--0--2--2---------------------------------------------|
D|--4--4--4--4--0--0--2--2---------------------------------------------|
A|--2--2--2--2--2--2--2--2---------------------------------------------|
E|--0--0--0--0--3--3--0--0---------------------------------------------|

[Verse]
 (clean)
e|---------------------------------------------------------------------|
B|-----------3----------------------------0----------------------------|
G|---------4---4----0---------0-------2-----Repeat 3x------------------|
D|------4--------4----------0-------2----------------------------------|
A|---2--------------------2-------0------------------------------------|
E|----------------------3----------------------------------------------|

e|-------------------------------0-------------------------------------|
B|---------3-----------------------0-----------------------------------|
G|------4---4---0---------0----------0---------------------------------|
D|---4--------4---------0----------------------------------------------|
A|-2------------------2------------------------------------------------|
E|------------------3--------------------------------------------------|

[Chorus]
 (distortion)
e|----------------------------------------------------------------------------|
B|----------------------------------------------------------------------------|
G|-------------------------------------------Repeat 3x------------------------|
D|--4--4-4--4-4--4-4--4-------------------------------------------------------|
A|--2--2-2--2-2--2-2--2-5--5-5--5-7--7-7--7-----------------------------------|
E|----------------------------3--3-3--3-5--5-5--5-----------------------------|

e|----------------------------------------------------------------------------|
B|----------------------------------------------------------------------------|
G|----------------------------------------------------------------------------|
D|--4--4-4--4-4--4-4--4-------------------------------------------------------|
A|--2--2-2--2-2--2-2--2-5----------7------------------------------------------|
E|----------------------------3----------5------------------------------------|

[Solo]
 (distortion)
e|---------------------------------------------------------------------|
B|---------------------------------------------------------------------|
G|---------------------------------------------------------------------|
D|------------------2-----------------------------02020202-------------|
A|--2--4--5--4--5-4----5--4-5-4-0-2--0--2--0--2-0---------45454545-----|
E|---------------------------------------------------------------------|

e|---------------------------------------------------------------------|
B|---------------------------------------------------------------------|
G|---------------------------------------------------------------------|
D|------------------2-----------------------------02020202-------------|
A|--2--4--5--4--5-4----5--4-5-4-0-2--0--2--0--2-0---------45454545-----|
E|---------------------------------------------------------------------|

[Refrain]
 (clean)
e|--------------0----------3----------------------------------------------|
B|--3----------2----------3-----------------------------------------------|
G|--4----------2----------0-----------------------------------------------|
D|--4----------2----------0-----------------------------------------------|
A|--2----------0----------2-----------------------------------------------|
E|--------------------------3---------------------------------------------|

[Chorus]
 (distortion)
e|----------------------------------------------------------------------------|
B|----------------------------------------------------------------------------|
G|-------------------------------------------Repeat 3x------------------------|
D|--4--4-4--4-4--4-4--4-------------------------------------------------------|
A|--2--2-2--2-2--2-2--2-5--5-5--5-7--7-7--7-----------------------------------|
E|----------------------------3--3-3--3-5--5-5--5-----------------------------|

e|----------------------------------------------------------------------------|
B|----------------------------------------------------------------------------|
G|----------------------------------------------------------------------------|
D|--4--4-4--4-4--4-4--4-------------------------------------------------------|
A|--2--2-2--2-2--2-2--2-5----------7------------------------------------------|
E|----------------------------3----------5------------------------------------|

[Outro]
 (distortion)
e|---------------------------------------------------------------------|
B|---------------------------------------------------------------------|
G|---------------------------------------------------------------------|
D|------------------2-----------------------------02020202-------------|
A|--2--4--5--4--5-4----5--4-5-4-0-2--0--2--0--2-0---------45454545-----|
E|---------------------------------------------------------------------|

e|---------------------------------------------------------------------|
B|---------------------------------------------------------------------|
G|---------------------------------------------------------------------|
D|------------------4--2---------------------------02020202------------|
A|--2--4--5--4--5-4-------5--4-5-0-2--0--2--0--2-0---------45454545--2-|
E|---------------------------------------------------------------------|

************************************

| x  Dead note

************************************
Suggest correction
comments
print report bad tab
guest
You may want to rate the tab now too:
select rating
Wanna post a correction for this tab? Suggest correction