Oops, an error
Loading. Please wait.

Kryptonite Tab

6,715 views 1 this week
5 commentsread comments
1 2 3 4 5
x 6
add to favorites
launch autoscroll
font size
0
reset
how to read this tab
guitar tuner
Autoscroll
slow
fast
+/-
esc
set tempo
stop
Help us to improve Ultimate-Guitar.com Take our survey!
×
transcribed by: Andrew M. Dunnington
intro/verse  
1 + 2 + 3 + 4 +]
e----------------]
b-------3--------]
g---- 4-----4---0]
d---4---------4--]
a-2--------------]
e----------------]

  1 + 2 + 3 + 4 +]
e----------------]
b---------------0]
g-------0-----2--]
d-----0-----2----]
a---2-----0------]
e-3--------------]

chorus
  1 + 2 + 3 + 4 +]
e----------------]
b----------------]
g----------------]
d-9---9---9---9--]
a-9---9---9---9--]
e-7---7---7---7--]


  1 + 2 + 3 + 4 +]
e----------------]
b----------------]
g----------------]
d-5-5-5-5-7-7-7-7]
a-5-5-5-5-7-7-7-7]
e-3-3-3-3-5-5-5-5]

solo
  1 + 2 + 3 + 4 +
e-----------------]
b-----------------]
g-----------------]
d-----------------]
a-----------------]
e-7---9-10--9-10-9]
  
  1 + 2 + 3 + 4 +]
e----------------]
b----------------]
g----------------]
d----------------]
a-7---5-4---5-4--]
e---------------5]

  1 + 2 + 3 + 4 +]
e----------------]
b----------------]
g----------------]
d----------------]
a----------------]
e-7---5-7---5-7-5]

  1 + 2 + 3 + 4 +]
e----------------]
b----------------]
g----------------]
d-5-5-5-5-5-5-5-5]               
a-5-5-5-5-5-5-5-5]            
e-3-3-3-3-3-3-3-3]               

  1 + 2 + 3 + 4 +]
e----------------]
b----------------]
g----------------]
d-7-7-7-7-7-7-7-7]
a-7-7-7-7-7-7-7-7]
e-5-5-5-5-5-5-5-5]

  1 + 2 + 3 + 4 +]
e----------------]
b----------------]
g----------------]
d-9v-------------]
a-9v-------------]
e-7v-------------]

Any corrections or comments
just email me at 
fender_bender_rocker@yahoo.com.
eeennnjjjoooyyy!!!
Suggest correction
comments
print report bad tab
5 comments total. Showing first comments.
0 reply
smiledon 10 Dec 19, 2002 12:00 AM

I'm sorry but there aren't any correct versions of this tab. you are all wrong! you all should listen to the begining a little closer.

0 reply
Scarlatti 143 Oct 24, 2006 07:56 AM

Intro is all correct.

But the solo should be like this

e---------------------------------------------------------------------
b---------------------------------------------------------------------
g---------------------------------------------------------------------
d---------------------------------------------------------------------
a---5-4-5-4-5-4-7-5-4-5-4-5------------------5-7-5-7-5-7-5-4-5-4-5-4-5
E-7--------------------------5-7-5-7-5-7-5-7--------------------------

0 reply
Scarlatti 143 Oct 24, 2006 07:59 AM

Oh, and there is a second part in the intro that should be like this:

e------------------------------0-------]
b-------3------------------------0-----]
g---- 4-----4---0---------0--------0---]
d---4---------4---------0--------------]
a-2-------------------2-----0----------]
e-------------------3------------------]

guest
You may want to rate the tab now too:
select rating
Wanna post a correction for this tab? Suggest correction