Oops, an error
Loading. Please wait.

Kryptonite Tab

11,603 views 4 this week
no commentswrite comment
1 2 3 4 5
please rate
add to favorites
launch autoscroll
font size
0
reset
how to read this tab
guitar tuner
Tab Pro tools
  • play this tab
  • loop segment
  • change instrument
  • show fretboard
  • metronome
×
Best way to learn
"Kryptonite"
Autoscroll
slow
fast
+/-
esc
set tempo
stop
Contributor
Difficulty
intermediate
----------------------------------------------------------------------------                      
Kryptonite by 3 Doors Down                   
----------------------------------------------------------------------------
Tabbed by: Nickvette22
Email:Nickvette222@Yahoo.com (if you have any questions)

Tuning: Standard E

Easy to understand but its a little complicated to play.

************************************
| /   slide up
| \   slide down
| h   hammer-on
| p   pull-off
| ~   vibrato
| x   Left hand mute
************************************

INTRO                          Play 4 Times
e|---------------------------------------------------------------------------|
B|-------------3--------------------------------0------------3---------------|
G|----------4-----4----0------------0--------2------------4-----4---0--------|
D|-------4----------4------------0--------2------------4----------4----------|
A|----2-----------------------2--------0------------2------------------------|
E|-------------------------3-------------------------------------------------|
             
e|---------------------------------------------------------------------------|
B|-------------3--------------------------------0------------3---------------|
G|----------4-----4----0------------0--------2------------4-----4---0--------|
D|-------4----------4------------0--------2------------4----------4----------|
A|----2-----------------------2--------0------------2------------------------|
E|-------------------------3------------------------------------------------

CHORUS                     Played 2 Times
e|---------------------------------------------------------------------------|
B|---------------------------------------------------------------------------|
G|---------------------------------------------------------------------------|
D|---------------------------------------------------------------------------|
A|--11--x-x--11--x-x-11-x-x-11--x-x--5--x-x--5-x-x--7--x-x--7-x-x--11--x-x---|
E|---9--x-x---9--x-x--9-x-x--9--x-x--3--x-x--3-x-x--5--x-x--5-x-x---9--x-x---|

e|---------------------------------------------------------------------------|
B|---------------------------------------------------------------------------|
G|---------------------------------------------------------------------------|
D|---------------------------------------------------------------------------|
A|--11--x-x--11--x-x--11--x-x--2--x-x-2--x-x--4--x-x-4--x-x------------------|
E|---9--x-x---9--x-x---9--x-x--0--x-x-0--x-x--2--x-x-2--x-x------------------|

SOLO                       Played 2 Times
e|------------------------------------------------------------------------------|
B|------------------------------------------------------------------------------|
G|------------------------------------------------------------------------------|
D|------------------------------------------------------------------------------|
A|---12\2-2-2-4-4-4-5-5-5-4-4-4-5-5-4-4-7-7-7-5-5-5-4-4-4-5-4-4-5p4p-2-2-2-0-0--|
E|------------------------------------------------------------------------------|

e|---------------------------------------------------------------------------|
B|---------------------------------------------------------------------------|
G|---------------------------------------------------------------------------|
D|---------------------------------------------------------------------------|
A|---0-2-2-2-0-0-0-12\5-7-5-7-5-7-5-7-4-5-4-5-7-5-4-0/2~---------------------|
E|---------------------------------------------------------------------------|

PART AFTER SOLO             Played 4 Times
e|------------------2-------2------3-----------------------------------------|
B|------------3--------0------0------3---------------------------------------|
G|---------4--------------0-----0------0-------------------------------------|
D|------4--------------------------------------------------------------------|
A|---2-----------------------------------------------------------------------|
E|---------------------------------------------------------------------------|

comments
We did not receive enough feedback on this tab! Please rate:
print report bad tab
1 2 3 4 5
I want to post or [tab]
guest
You may want to rate the tab now too:
select rating
Please do not post tabs as comments. Select "correction" instead!