Oops, an error
Loading. Please wait.

Landing In London Bass Tab

version 2
version 2

Whole song

Interactive

1,292 views 3 this week
no commentswrite comment
1 2 3 4 5
please rate
add to favorites
launch autoscroll
font size
0
reset
guitar tuner
Tab Pro tools
  • play this tab
  • loop segment
  • change instrument
  • show fretboard
  • metronome
×
Best way to learn
"Landing In London"
Autoscroll
slow
fast
+/-
esc
set tempo
stop
Contributor
Difficulty
novice
-------------------------------------------------------------------------------
			     Landing In London - 3 Doors Down
-------------------------------------------------------------------------------

Tabbed By : BassDudeHT
e-mail: natlav@live.ca

Tuning: Standered


NOTICE: The tab below is meant to be more of a guidline of where the notes are
being played. For the rhythm of the bass, just follow the strumming of the chords.


Intro/Verse: No Bass


Chorus:

G|---------------------------------------------------------------------------|
D|---------------------------------------------------------------------------|
A|3-3-3-3-3-3-3-3-0-0-0-0-0-0-0-0--------------------------------------------|
E|--------------------------------0-0-0-0-0-0-0-0-0-0-0-0-0-0-0-0------------|


G|---------------------------------------------------------------------------|
D|---------------------------------------------------------------------------|
A|3-3-3-3-3-3-3-3-5*---------------------------------------------------------|
E|--------------------------------0-0-0-0-0-0-0-0-0-0-0-0-0-0-0-0------------|


Verse 1: 
                                                                            2x
G|---------------------------------------------------------------------------|
D|*-------------------------------------------------------------------------*|
A|*--------------- 0-0-0-0-0-0-0-0------------------------------------------*|
E|-3-3-3-3-3-3-3-3-----------------0-0-0-0-0-0-0-0-0-0-0-0-0-0-0-0-----------|
 

Pre-Chorus:
                                                                            2x
G|---------------------------------------------------------------------------|
D|*-------------------------------------------------------------------------*|
A|*3-3-3-3-3-3-3-3-5-5-5-5-5-5-5-5------------------------------------------*|
E|---------------------------------0-0-0-0-0-0-0-0-0-0-0-0-0-0-0-0-----------|


Chorus:

G|---------------------------------------------------------------------------|
D|---------------------------------------------------------------------------|
A|3-3-3-3-3-3-3-3-0-0-0-0-0-0-0-0--------------------------------------------|
E|--------------------------------0-0-0-0-0-0-0-0-0-0-0-0-0-0-0-0------------|


G|---------------------------------------------------------------------------|
D|---------------------------------------------------------------------------|
A|3-3-3-3-3-3-3-3-5*---------------------------------------------------------|
E|--------------------------------0-0-0-0-0-0-0-0-0-0-0-0-0-0-0-0------------|


Solo:


G|---------------------------------------------------------------------------|
D|---------------------------------------------------------------------------|
A|3-3-3-3-3-3-3-3-0-0-0-0-0-0-0-0--------------------------------------------|
E|--------------------------------0-0-0-0-0-0-0-0-0-0-0-0-0-0-0-0------------|


G|---------------------------------------------------------------------------|
D|---------------------------------------------------------------------------|
A|3-3-3-3-3-3-3-3-5-5-5-5-5-5-5-5--------------------------------------------|
E|--------------------------------0-0-0-0-0-0-0-0-0-0-0-0-0-0-0-0------------|



Pre-Chorus:

G|---------------------------------------------------------------------------|
D|---------------------------------------------------------------------------|
A|3-3-3-3-3-3-3-3-0-0-0-0-0-0-0-0--------------------------------------------|
E|--------------------------------0-0-0-0-0-0-0-0-0-0-0-0-0-0-0-0------------|


G|---------------------------------------------------------------------------|
D|---------------------------------------------------------------------------|
A|3-3-3-3-3-3-3-3-5-5-5-5-5-5-5-5--------------------------------------------|
E|--------------------------------0-0-0-0-0-0-0-0-0-0-0-0-0-0-0-0------------|



Chorus:

G|---------------------------------------------------------------------------|
D|---------------------------------------------------------------------------|
A|3-3-3-3-3-3-3-3-0-0-0-0-0-0-0-0--------------------------------------------|
E|--------------------------------0-0-0-0-0-0-0-0-0-0-0-0-0-0-0-0------------|


G|---------------------------------------------------------------------------|
D|---------------------------------------------------------------------------|
A|3-3-3-3-3-3-3-3-5*---------------------------------------------------------|
E|---------------------------------------------------------------------------|

Outro: No Bass

| *  hold note
| /  slide up
| \  slide down
| h  hammer-on
| p  pull-off
| ~  vibrato
| +  harmonic
| x  Mute note
===============================================================================
 
  Thanks for reading this ladies and gents. If you have any questions, my e-mail is
at the top! 
comments
We did not receive enough feedback on this tab! Please rate:
print report bad tab
1 2 3 4 5
I want to post or [tab]
guest
You may want to rate the tab now too:
select rating
Please do not post tabs as comments. Select "correction" instead!