Oops, an error
Loading. Please wait.

Landing In London Tab

version 4
version 4

Interactive

7,521 views 3 this week
1 commentread comment
1 2 3 4 5
accurate
x 5
add to favorites
launch autoscroll
font size
0
reset
how to read this tab
guitar tuner
Autoscroll
slow
fast
+/-
esc
set tempo
stop
Help us to improve Ultimate-Guitar.com Take our survey!
×
Author
Landing in london
3 Doors Down
Track number 5 from Seventeen days
Tabbed By: Mariano Arnaiz
Anything to : marianoarnaiz@hotmail.com
Tunning: standar
Song: Played in acustic guitar with metal strings, A H pick or finger picking
Guitar solo: Played in 2 humbukers guitar with little distortion.
There is a second guitar but i couldnt tab it but here is the main guitar so enjoy.

Intro                                                                                    
|-----------------------------|----------------------------|------------------------------|
|-------1-----0---------------|-------1-----0--------------|-------1-----0----------------|
|---------0-----0------2h4--0-|---------0-----0----2---2h4-|---------0------0------2h4--0-|  
|-----2-----2-----2-----------|-----2-----2-----2----------|-----2-----2------2-----------|
|---2-------------------------|---2------------------------|---2--------------------------|
|-0-------------------0-------|-0------------------0-------|-0--------------------0-------|

Verse 1 
Em Em  Em      Em         C      C
        I woke up today in London
Am            Am           Em    Em
 As the plane was touchin' down
Em          Em              C      C
 All I could think about was Monday
Am         Am         Em     Em
 And maybe I'd be back around

 Em                 G                                 Asus2     Am               Em
|------------------|----------------------------|-------------------------------|--------------------------------|
|------------------|----------------------------|---------0-------1-------------|--------------------------------|
|--------0-------0-|-------0------------0-------|-------2-------2------------0--|--------0-------(0)----------0--|x2
|------2---2-------|-----0--(0)-------0---------|-----2-------2----------0h2----|------2---2------------0h2------|
|----2---------2---|---2------(2)---2------2b.r-|---0-------0--------0h2--------|----2---------(2)----0h2--------|
|--0---------0-----|-3------------3-------------|------------------0--------(0)-|--0---------0----0----------(0)-|


Pre-Chorus 1 
Em            Em           C      C
 If this keeps me away much longer
D             D            Em     Em
 I don't know what I would do
Em                Em           C     C
 You've got to understand it's a hard life
D               D       Em     Em
 That I'm goin' through

Em                  C            C/B         Dsus2   D      Dsus4  Dsus  Em
|------------------|-----------------------|-------0-----2------3-------|--------------------------------|
|------------------|---------1-------------|-----3-----3------3-------2-|--------------------------------|
|--------0-------0-|-------0---0---0-------|---2-----2------2-------3---|--------0-------(0)----------0--|
|------2---2-------|-----2-------2---0---2-|-0--------------------------|------2---2------------0h2------|
|----2---------2---|---3--------------2----|(0)-------------------------|----2---------(2)---0h2---------|
|--0---------0-----|-----------------------|----------------------------|--0---------0----0----------(0)-|

Chorus 
Em                  Em        C        C/B
 And when the night falls in around me
Am                  Am         Em      Em
 And I don't think I'll make it through
Em                  Em        C        C/B
 I'll use your light to guide the way
D                   D         Em       Em
 'Cause all I think about is you

Em                    C (strum)   Am (strum)      Em (strum) 
|------------------|--(0)--(3)---(3)--|--0--0-0--0---|--0---------------------------------|
|------------------|---1----1-----1---|--1--1-1--1---|--0---------------------------------|
|-------0-------0--|---0----0-----0---|--2--2-2--2---|--0----------0-------(0)---------0--|
|-----2---2---2----|---2----2-----2---|--2-(2 2  2)--|--2--------2---2-------------0h2----|
|---2--------------|---3----3-----2---|--0-----------|--2------2--------(2)---0h2---------|
|-0---------0------|------------------|--------------|--0----0---------0--------------(0)-|

Em                    C (strum)   D (strum)      Em (strum) <2nd time dont play the picking> 
|------------------|--(0)--(3)---(3)--|--2---(2)---|--(0)--|
|------------------|---1----1-----1---|--3---(3)---|--(0)--|
|-------0-------0--|---0----0-----0---|--2---(2)---|--(0)--|
|-----2---2---2----|---2----2-----2---|--0---(0)---|--(2)--|
|---2--------------|---3----3-----2---|--0---------|--(2)--|
|-0---------0------|------------------|------------|--(0)--|

Break down (as intro)                                                                    
|-----------------------------|----------------------------|------------------------------|
|-------1-----0---------------|-------1-----0--------------|-------1-----0----------------|
|---------0-----0------2h4--0-|---------0-----0----2---2h4-|---------0------0------2h4--0-|  
|-----2-----2-----2-----------|-----2-----2-----2----------|-----2-----2------2-----------|
|---2-------------------------|---2------------------------|---2--------------------------|
|-0-------------------0-------|-0------------------0-------|-0--------------------0-------|

Verse 2 (Same than verse 1)
Well LA's gettin' kinda crazy 
And New York's gettin' kinda cold 
I'll keep my head from getting lazy 
I just can't wait to get back home 

 Em                 G                                 Asus2     Am               Em
|------------------|--------------------3/-5-5-5--|-------------------------------|--------------------------------|
|------------------|--------------------3/(5 5 5)-|---------0-------1-------------|--------------------------------|
|--------0-------0-|-------0----------------------|-------2-------2------------0--|--------0-------(0)----------0--|x2
|------2---2-------|-----0--(0)------(0)----------|-----2-------2----------0h2----|------2---2------------0h2------|
|----2---------2---|---2------(2)---2-------------|---0-------0--------0h2--------|----2---------(2)----0h2--------|
|--0---------0-----|-3------------3---------------|------------------0--------(0)-|--0---------0----0----------(0)-|

Note: The part of 3/(5 5 5) on B string in only for second time

Pre-Chorus 2: 
All these days I've spent apart
I'll make up for them I swear
I need your love to hold me up
When it's all too much to bear

Em                  C            C/B         Dsus2   D      Dsus4  Dsus  Em
|------------------|-----------------------|-------0-----2------3-------|--------------------------------|
|------------------|---------1-------------|-----3-----3------3-------2-|--------------------------------|
|--------0-------0-|-------0---0---0-------|---2-----2------2-------3---|--------0-------(0)----------0--|
|------2---2-------|-----2-------2---0---2-|-0--------------------------|------2---2------------0h2------|
|----2---------2---|---3--------------2----|(0)-------------------------|----2---------(2)---0h2---------|
|--0---------0-----|-----------------------|----------------------------|--0---------0----0----------(0)-|

Chorus: In the sond this chords are strums but the backing guitar plays the picking againg
Em                  Em        C        C/B
 And when the night falls in around me
Am                  Am         Em      Em
 And I don't think I'll make it through
Em                  Em        C        C/B
 I'll use your light to guide the way
D                   D         Em       Em
 'Cause all I think about is you

Em                    C (strum)   Am (strum)      Em (strum) 
|------------------|--(0)--(3)---(3)--|--0--0-0--0---|--0---------------------------------|
|------------------|---1----1-----1---|--1--1-1--1---|--0---------------------------------|
|-------0-------0--|---0----0-----0---|--2--2-2--2---|--0----------0-------(0)---------0--|
|-----2---2---2----|---2----2-----2---|--2-(2 2  2)--|--2--------2---2-------------0h2----|
|---2--------------|---3----3-----2---|--0-----------|--2------2--------(2)---0h2---------|
|-0---------0------|------------------|--------------|--0----0---------0--------------(0)-|

Em                    C (strum)   D (strum)      Em (strum) <2nd time dont play the picking> 
|------------------|--(0)--(3)---(3)--|--2---(2)---|--(0)--|
|------------------|---1----1-----1---|--3---(3)---|--(0)--|
|-------0-------0--|---0----0-----0---|--2---(2)---|--(0)--|
|-----2---2---2----|---2----2-----2---|--0---(0)---|--(2)--|
|---2--------------|---3----3-----2---|--0---------|--(2)--|
|-0---------0------|------------------|------------|--(0)--|

Guitar Solo and instrumental part

|--------------------------------------|-----------------------------------------|-7-7b(9).r-(7)-5-5-(5h)7--7-5--5(h7)/12-|
|-------------------7h8-7h8/10-(10h12)-|(10)\x/--/5-5.\--/7-7.\--/8-8--/10-10h12-|----------------------------------------|
|--------------7h9---------------------|-----------------------------------------|----------------------------------------|
|-------5h7/9--------------------------|-----------------------------------------|----------------------------------------|
|--/5h7--------------------------------|-----------------------------------------|----------------------------------------|
|--------------------------------------|-----------------------------------------|----------------------------------------|
 
|-12-12-12-12--10h12-10--8-8h10-8--7-7h8-7--5-5h7-5\0-| 
|-----------------------------------------------------|
|-----------------------------------------------------| 
|-------------------------------------------------7\2-|
|-----------------------------------------------------|
|-----------------------------------------------------| 
  (Here the pre-chorus 3   All these days I've spent apart
   begins)                      

Pre-Chorus 3: In the sond this chords are strums but the backing guitar plays the picking againg
All these days I've spent apart
I'll make up for them I swear
I need your love to hold me up
When it's all too much to bear

Em                  C            C/B         Dsus2   D      Dsus4  Dsus  Em
|------------------|-----------------------|-------0-----2------3-------|--------------------------------|
|------------------|---------1-------------|-----3-----3------3-------2-|--------------------------------|
|--------0-------0-|-------0---0---0-------|---2-----2------2-------3---|--------0-------(0)----------0--|
|------2---2-------|-----2-------2---0---2-|-0--------------------------|------2---2------------0h2------|
|----2---------2---|---3--------------2----|(0)-------------------------|----2---------(2)---0h2---------|
|--0---------0-----|-----------------------|----------------------------|--0---------0----0----------(0)-|

Chorus 
Em                  Em        C        C/B
 And when the night falls in around me
Am                  Am         Em      Em
 And I don't think I'll make it through
Em                  Em        C        C/B
 I'll use your light to guide the way
D                   D         Em       Em
 'Cause all I think about is you
Em              C (strum)   Am (strum)      Em (strum) 
|-0---0---0--|--(0)--(3)---(3)--|--0--0-0--0---|-0---0---0--|
|-0---0---0--|---1----1-----1---|--1--1-1--1---|-0---0---0--|
|-0---0---0--|---0----0-----0---|--2--2-2--2---|-0---0---0--|
|-2---2---2--|---2----2-----2---|--2-(2 2  2)--|-2---2---2--|
|-2---2---2--|---3----3-----2---|--0-----------|-2---2---2--|
|-0---0---0--|------------------|--------------|-0---0---0--|

Em                    C (strum)   D (strum once)      
|------------------|--(0)--(3)---(3)--|--2---|
|------------------|---1----1-----1---|--3---|
|-------0-------0--|---0----0-----0---|--2---| Stop playing
|-----2---2---2----|---2----2-----2---|--0---|
|---2--------------|---3----3-----2---|--0---|
|-0---------0------|------------------|------|
                                            'Cause all I think about is you
Suggest correction
What's this?
You can suggest a correction to this tab. Community and Mods will review your correction and vote to approve or reject it.
comments
print report bad tab
1 comment total.
0 reply
threedoors1776 42 wrote on July 28 2005, 12:00 am

your solo is off, other than that you did alright

guest
You may want to rate the tab now too:
select rating
Please do not post tabs as comments. Select "correction" instead!