Oops, an error
Loading. Please wait.

Landing In London Tab

version 5
version 5

Interactive

5,101 views 1 this week
no commentswrite comment
1 2 3 4 5
please rate
add to favorites
launch autoscroll
font size
0
reset
how to read this tab
guitar tuner
Autoscroll
slow
fast
+/-
esc
set tempo
stop
Help us to improve Ultimate-Guitar.com Take our survey!
×
Author
Difficulty
intermediate
                              Landing in London                                 


                                                                    3 Doors Down
Track 1

I have checked the other versions of these tabs and most of them are a bit close, 
but not that close enough. This tab is 100% correct as I have watched them play like 
this live. I would also consider the playing to be easy as well than the other methods.
This is the rhythm section unfortunately, I don't have the solo.


     Q    E  E  Q    E  E     Q    E  E  E   E  Q       Q    E  E  Q    E  E   
E||------------------------|-------------------------|------------------------|
B||------------------------|-------------------------|------------------------|
G||-------------5----------|--4----------2h--4-------|-------------5----------|
D||----------2-------2-----|-------2------------5----|----------2-------2-----|
A||-------2-------------2--|----------2--------------|-------2-------------2--|
E||--0---------------------|-------------------------|--0---------------------|


  Q    E  E  Q    E   E     Q    E  E  Q    E  E     Q    E  E  E   E  Q     
-------------------------|------------------------|-------------------------|
-------------------------|------------------------|-------------------------|
--4----------2----2h--4--|-------------5----------|--4----------2h--4-------|
-------2-----------------|----------2-------2-----|-------2------------5----|
----------2--------------|-------2-------------2--|----------2--------------|
-------------------------|--0---------------------|-------------------------|


  Q    E  E  E  E  E  E     W                     Q    E  E  E  E  E  E   
-------------------------|-------------------||--------------------------|
-------------------------|-------------------||--------------0-----------|
-------------0-----------|-------------------||*----------------0--------|
----------2-----2--------|-------------------||*----------0--------------|
-------2-----------2-----|-------------------||--------2-----------2-----|
--0-------------------0--|--L----------------||---3-------------------3--|


  H        H             Q    E  E  E  E  E  E     Q    E   Q    E   E  E   
----------------------|-------------------------|--------------------------|
----------------------|-------------0-----------|--------------------------|
----------------------|----------2-----2--------|-----------------------0--|
----------------------|-------2-----------2-----|----------------0h--2-----|
-----------2br--------|--0-------------------0--|--L----0h--2--------------|
--L-------------------|-------------------------|--------------------------|


  Q    E  E  E  E  E  E     Q    E   Q    E   E  E     Q    E  E  E  E  E  E   
-------------------------|--------------------------|-------------------------|
-------------------------|--------------------------|-------------------------|
-------------0-----------|-----------------------0--|-------------0-----------|
----------2-----2--------|----------------0h--2-----|----------2-----2--------|
-------2-----------2-----|-------0h--2--------------|-------2-----------2-----|
--0-------------------0--|--L-----------------------|--0-------------------0--|


  Q    E  E  Q    E  E        Q    E  E  Q    E  E     Q    E  E  H         
-------------------------||-------------------------|----------------------|
-------------------------||--------------1----------|--0-------------------|
-------------0----------*||*----------0-------0-----|-------0-----2--------|
----------2-------2-----*||*-------2-------------2--|----------2-----------|
-------2-------------2---||---3---------------------|----------------------|
--L----------------------||-------------------------|----------------------|


  Q    E  E  E  E  Q       E  E  Q    E  E  Q       Q    E  E  E  E  E  E   
-------------0----------|--2----------3----------|-------------------------|
----------3-----3-------|-----3----------3-------|-------------------------|
-------2-----------2----|--------2----------2----|-------------0-----------|
--0---------------------|------------------------|----------2-----2--------|
------------------------|------------------------|-------2-----------2-----|
------------------------|------------------------|--0-------------------0--|


  Q    E   Q    E   E  E     Q    E  E  E  E  E  E     H        Q    E  E   
--------------------------|-------------------------|----------------------|
--------------------------|-------------------------|--1--------1----1--1--|
-----------------------0--|-------------0-----------|--0--------0----0--0--|
----------------0h--2-----|----------2-----2--------|--2--------2----2--2--|
-------0h--2--------------|-------2-----------2-----|--3--------3----3--3--|
--L-----------------------|--0-------------------0--|--3--------3----3--3--|


  E  E  Q    Q    Q       H        Q    E  E     E  E  Q    Q    Q     
-----------------------|----------------------|-----------------------|
--L--1--1----1----1----|--1--------1----1--1--|--L--1--1----1----1----|
--L--0--0----0----0----|--2--------2----2--2--|--L--2--2----2----2----|
--L--2--2----2----2----|--2--------2----2--2--|--L--2--2----2----2----|
--L--3--3----3----3----|--0--------0----0--0--|--L--0--0----0----0----|
--L--3--3----3----3----|----------------------|-----------------------|


  Q    E  E  E  E  E  E     Q    E   Q    E   E  E     Q    E  E  E  E  E  E   
--0----------------------|--------------------------|-------------------------|
--0----------------------|--------------------------|-------------------------|
--0----------0-----------|-----------------------0--|-------------0-----------|
--2-------2-----2--------|----------------0h--2-----|----------2-----2--------|
--2----2-----------2-----|-------0h--2--------------|-------2-----------2-----|
--0-------------------0--|--L-----------------------|--0-------------------0--|


  Q    E  E  Q    E  E     H        Q    E  E     E  E  Q    Q    Q     
------------------------|----------------------|-----------------------|
------------------------|--1--------1----1--1--|--L--1--1----1----1----|
-------------0----------|--0--------0----0--0--|--L--0--0----0----0----|
----------2-------2-----|--2--------2----2--2--|--L--2--2----2----2----|
-------2-------------2--|--3--------3----3--3--|--L--3--3----3----3----|
--L---------------------|--3--------3----3--3--|--L--3--3----3----3----|


  W                   W                   Q    E  E  Q    E  E   
--2----------------|--L----------------|------------------------|
--3----------------|--L----------------|------------------------|
--2----------------|--L----------------|-------------5----------|
--0----------------|--L----------------|----------2-------2-----|
-------------------|-------------------|-------2-------------2--|
-------------------|-------------------|--0---------------------|


  Q    E  E  E   E  Q       Q    E  E  Q    E  E     Q    E  E  Q    E   E   
-------------------------|------------------------|-------------------------|
-------------------------|------------------------|-------------------------|
--4----------2h--4-------|-------------5----------|--4----------2----2h--4--|
-------2------------5----|----------2-------2-----|-------2-----------------|
----------2--------------|-------2-------------2--|----------2--------------|
-------------------------|--0---------------------|-------------------------|


  Q    E  E  Q    E  E     Q    E  E  E   E  Q       Q    E  E  E  E  E  E   
------------------------|-------------------------|-------------------------|
------------------------|-------------------------|-------------------------|
-------------5----------|--4----------2h--4-------|-------------0-----------|
----------2-------2-----|-------2------------5----|----------2-----2--------|
-------2-------------2--|----------2--------------|-------2-----------2-----|
--0---------------------|-------------------------|--0-------------------0--|


  W                     Q    E  E  E  E  E  E     H        H           
-------------------||--------------------------|----------------------|
-------------------||--------------0-----------|----------------------|
-------------------||*----------------0--------|----------------------|
-------------------||*----------0--------------|----------------------|
-------------------||--------2-----------2-----|-----------2br--------|
--L----------------||---3-------------------3--|--L-------------------|


  Q    E  E  E  E  E  E     Q    E   Q    E   E  E     Q    E  E  E  E  E  E   
-------------------------|--------------------------|-------------------------|
-------------0-----------|--------------------------|-------------------------|
----------2-----2--------|-----------------------0--|-------------0-----------|
-------2-----------2-----|----------------0h--2-----|----------2-----2--------|
--0-------------------0--|--L----0h--2--------------|-------2-----------2-----|
-------------------------|--------------------------|--0-------------------0--|


  Q    E   Q    E   E  E     Q    E  E  E  E  E  E     Q    E  E  Q    E  E     
--------------------------|-------------------------|-------------------------||
--------------------------|-------------------------|-------------------------||
-----------------------0--|-------------0-----------|-------------0----------*||
----------------0h--2-----|----------2-----2--------|----------2-------2-----*||
-------0h--2--------------|-------2-----------2-----|-------2-------------2---||
--L-----------------------|--0-------------------0--|--L----------------------||


   H        Q    E  E     E  E  Q    Q    Q       H        Q    E  E   
-----------------------|-----------------------|----------------------|
---1--------1----1--1--|--L--1--1----1----1----|--1--------1----1--1--|
*--0--------0----0--0--|--L--0--0----0----0----|--2--------2----2--2--|
*--2--------2----2--2--|--L--2--2----2----2----|--2--------2----2--2--|
---3--------3----3--3--|--L--3--3----3----3----|--0--------0----0--0--|
---3--------3----3--3--|--L--3--3----3----3----|----------------------|


  E  E  Q    Q    Q       H        Q    E  E     E  E  Q    Q    Q     
-----------------------|--0--------0----0--0--|--L--0--0----0----0----|
--L--1--1----1----1----|--0--------0----0--0--|--L--0--0----0----0----|
--L--2--2----2----2----|--0--------0----0--0--|--L--0--0----0----0----|
--L--2--2----2----2----|--2--------2----2--2--|--L--2--2----2----2----|
--L--0--0----0----0----|--2--------2----2--2--|--L--2--2----2----2----|
-----------------------|--0--------0----0--0--|--L--0--0----0----0----|


  H        Q    E  E     E  E  Q    Q    Q       H        Q    E  E   
--0--------0----0--0--|--L--0--0----0----0----|----------------------|
--0--------0----0--0--|--L--0--0----0----0----|--1--------1----1--1--|
--0--------0----0--0--|--L--0--0----0----0----|--0--------0----0--0--|
--2--------2----2--2--|--L--2--2----2----2----|--2--------2----2--2--|
--2--------2----2--2--|--L--2--2----2----2----|--3--------3----3--3--|
--0--------0----0--0--|--L--0--0----0----0----|--3--------3----3--3--|


  E  E  Q    Q    Q       H        Q    E  E     E  E  Q    Q    Q     
-----------------------|--2--------2----2--2--|--L--2--2----2----2----|
--L--1--1----1----1----|--3--------3----3--3--|--L--3--3----3----3----|
--L--0--0----0----0----|--2--------2----2--2--|--L--2--2----2----2----|
--L--2--2----2----2----|--0--------0----0--0--|--L--0--0----0----0----|
--L--3--3----3----3----|----------------------|-----------------------|
-----3--3----3----3----|----------------------|-----------------------|


  H        Q    E  E     E  E  Q    Q    Q       H        Q    E  E   
--0--------0----0--0--|--L--0--0----0----0----|--0--------0----0--0--|
--0--------0----0--0--|--L--0--0----0----0----|--0--------0----0--0--|
--0--------0----0--0--|--L--0--0----0----0----|--0--------0----0--0--|
--2--------2----2--2--|--L--2--2----2----2----|--2--------2----2--2--|
--2--------2----2--2--|--L--2--2----2----2----|--2--------2----2--2--|
--0--------0----0--0--|--L--0--0----0----0----|--0--------0----0--0--|


  E  E  Q    Q    Q     3x   H        Q    E  E     E  E  Q    Q    Q            
--L--0--0----0----0-----||-----------------------|-----------------------|
--L--0--0----0----0-----||---1--------1----1--1--|--L--1--1----1----1----|
--L--0--0----0----0----*||---0--------0----0--0--|--L--0--0----0----0----|
--L--2--2----2----2----*||---2--------2----2--2--|--L--2--2----2----2----|
--L--2--2----2----2-----||---3--------3----3--3--|--L--3--3----3----3----|
--L--0--0----0----0-----||---3--------3----3--3--|--L--3--3----3----3----|


  H        Q    E  E     E  E  Q    Q    Q       H        Q    E  E  
----------------------|-----------------------|--0--------0----0--0--|
--1--------1----1--1--|--L--1--1----1----1----|--0--------0----0--0--|
--2--------2----2--2--|--L--2--2----2----2----|--0--------0----0--0--|
--2--------2----2--2--|--L--2--2----2----2----|--2--------2----2--2--|
--0--------0----0--0--|--L--0--0----0----0----|--2--------2----2--2--|
----------------------|-----------------------|--0--------0----0--0--|


  E  E  Q    Q    Q        H        Q    E  E     E  E  Q    Q    Q    
--L--0--0----0----0----|-----------------------|-----------------------|
--L--0--0----0----0----|---1--------1----1--1--|--L--1--1----1----1----|
--L--0--0----0----0----|---0--------0----0--0--|--L--0--0----0----0----|
--L--2--2----2----2----|---2--------2----2--2--|--L--2--2----2----2----|
--L--2--2----2----2----|---3--------3----3--3--|--L--3--3----3----3----|
--L--0--0----0----0----|---3--------3----3--3--|--L--3--3----3----3----|


  W                   W                   Q    E  E  Q    E  E  
--2----------------|--L----------------|------------------------|
--3----------------|--L----------------|------------------------|
--2----------------|--L----------------|-------------5----------|       
--0----------------|--L----------------|----------2-------2-----|
-------------------|-------------------|-------2-------------2--|
-------------------|-------------------|--0---------------------|


  Q    E  E  E   E  Q       Q    E  E  Q    E  E     Q    E  E  Q    E   E  
-------------------------|------------------------|-------------------------|
-------------------------|------------------------|-------------------------|
--4----------2h--4-------|-------------5----------|--4----------2----2h--4--|
-------2------------5----|----------2-------2-----|-------2-----------------|
----------2--------------|-------2-------------2--|----------2--------------|
-------------------------|--0---------------------|-------------------------|


  Q    E  E  Q    E  E     Q    E  E  E   E  Q       Q    E  E  E  E  E  E  
------------------------|-------------------------|----------------------0--|
------------------------|-------------------------|----------------------0--|
-------------5----------|--4----------2h--4-------|-------------0--------0--|
----------2-------2-----|-------2------------5----|----------2-----2-----2--|
-------2-------------2--|----------2--------------|-------2-----------2--2--|
--0---------------------|-------------------------|--0-------------------0--|


  W                
--L----------------||
--L----------------||
--L----------------||
--L----------------||
--L----------------||
--L----------------||


Duration Legend
---------------
W - whole
H - half
Q - quarter
E - 8th
S - 16th
T - 32nd
X - 64th
. - note dotted
|-n-|  - n-tuplets


Tablature Legend
----------------
L - tied note
x - dead note
g - grace note
(n) - ghost note
> - accentuded note
NH - natural harmonic
AH - artificial harmonic
TH - tapped harmonic
SH - semi harmonic
PH - pitch harmonic
h - hammer on
p - pull off
b - bend
br - bendRelease
pb - preBend
pbr - preBendRelease
brb - bendReleaseBend
\n/ - tremolo bar dip
\n - tremolo bar dive
-/n - tremolo bar Release up
/n\ - tremolo bar inverted dip
/n - tremolo bar return
-\n - tremolo bar Release down
S - shift slide
s - legato slide
/ -  slide into from below or out of upwards
\ -  slide into from above or out of downwards
~ - vibrato
W - wide vibrato
tr - trill
TP - tremolo picking
T - tapping
S - slap
P - pop
< - fade in
^ - brush up
v - brush down
Suggest correction
Give kudos to tab author, rate the tab!
1 2 3 4 5
comments
print report bad tab
guest
You may want to rate the tab now too:
select rating
Please do not post tabs as comments. Select "correction" instead!