Oops, an error
Loading. Please wait.

Landing In London Tab

version 6
version 6

Interactive

26,672 views 69 this week
no commentswrite comment
1 2 3 4 5
accurate
x 5
add to favorites
launch autoscroll
font size
0
reset
how to read this tab
guitar tuner
Tab Pro tools
  • play this tab
  • loop segment
  • change instrument
  • show fretboard
  • metronome
Autoscroll
slow
fast
+/-
esc
set tempo
stop
Contributor
Difficulty
novice
Band: 3 Doors Down
Song: Landing in London
Album: Seventeen Days
Tunning: Standard

Intro:
      Em                         Em                      Em
|-----------------------------------------------------------------------|
|--------1---0------------------1---0------------------1---0------------|
|----------------2h4-0------------------2-2h4------------------2h4-0----|
|------2--2-------------------2--2-------------------2--2---------------|
|----2-----2----------------2-----2----------------2------2-------------|
|--0----------------------0----------------------0----------------------|

Verse 1:

I woke up today in London, As the plane was touchin’ down
     Em       G            Am                Em
|---------------0--------------------------------------------------------|
|---------------0-------0--------------0---1-----------------------------|
|-------0-------0-----0---------------2-2------------0----0-----------0--|
|-----2---2-----2---0----0-----------2---2--------0h2----2-2-------0h2---|
|---2------2----2---------2---2/3\2-0-------0--0h2------2---2---0h2------|
|-0----------0--0-3--------3--------------------------0------------------|

All I could think about was mondag, And mayby I’d be back around
     Em          G                    Am               Em
|--------------------------------------------------------------------------|
|----------------------0-----------------0---1-----------------------------|
|----0---------------0------------------2-2------------0----0-----------0--|
|---2-2-----2------0-----0-------------2---2--------0h2----2-2-------0h2---|
|--2---2—-2/3\2------------2----2/3\2-0-------0--0h2------2---2---0h2------|
|-0-----0--------3-----------3--------------------------0------------------|

If this keeps me away much longer, I don’t know what I would do
     Em           C                 D          Em
|--------------------------------------0--2--3-----------------------|
|-----------------------1---0---------3--3--3------------------------|
|----0-------0--------0---0---0--2---2--2--2------0------------0-----|
|---2-2----2---2----2------2----2---0------------2-2--------0h2------|
|--2---2---2-3-2--3-----------------------------2---2----0h2---------|
|-0-----0--------------------------------------0-----0---------------|

You've got to understand it’s a hard life, That I’m going through
     Em           C               D          Em
|------------------------------------0--2--3-----------------------|
|-----------------------1--0--------3--3--3------------------------|
|----0----------------0--0--0--2---2--2--2------0------------0-----|
|---2-2------2------2-----2--2----0------------2-2--------0h2------|
|--2---2---2-3-2--3---------------------------2---2----0h2---------|
|-0-----0------------------------------------0-----0---------------|

Chorus 1:
When the night falls in around me, And I don’t know think I’ll make it through
     Em              C (strum)   Am (strum)   Em (strum)
|--------------------------------0----------------------------------------|
|--------------------1-----------0----------------------------------------|
|----0---------------0-----------2-------------0----0----------------0----|
|---2-2------2-------2-----------2-------------2---2---2----------0h2-----|
|--2---2---2-3-2-----3-----------0-------------2-2--------2----0h2--------|
|-0-----0------------------------0-------------0-----------0--------------|

I'll use your light to guide the way, cause all I think about is you
     Em              C (strum)   D (strum)
|--------------------------------2------------------------------------|
|--------------------1-----------3------------------------------------|
|----0---------------0-----------2------------------------------------|
|---2-2------2-------2------------------------------------------------|
|--2---2---2-3-2-----3------------------------------------------------|
|-0-----0-------------------------------------------------------------|
     Em                         Em                      Em
|-----------------------------------------------------------------------|
|--------1---0------------------1---0------------------1---0------------|
|----------------2h4-0------------------2-2h4------------------2h4-0----|
|------2--2-------------------2--2-------------------2--2---------------|
|----2-----2----------------2-----2----------------2------2-------------|
|--0----------------------0----------------------0----------------------|


Verse 2:

Well LA's getting kinda crazy, And new york’s getting kinda cold
         Em       G            Am                Em
|---------------0--------------------------------------------------------|
|---------------0-------0--------------0---1-----------------------------|
|-------0-------0-----0---------------2-2------------0----0-----------0--|
|-----2---2-----2---0----0-----------2---2--------0h2----2-2-------0h2---|
|---2------2----2---------2---2/3\2-0-------0--0h2------2---2---0h2------|
|-0----------0--0-3--------3--------------------------0------------------|

I keep my head from getting lazy, I just can’t wait to get back home
        Em          G                    Am               Em
|--------------------------------------------------------------------------|
|----------------------0-----------------0---1-----------------------------|
|----0---------------0------------------2-2------------0----0-----------0--|
|---2-2-----2------0-----0-------------2---2--------0h2----2-2-------0h2---|
|--2---2—-2/3\2------------2----2/3\2-0-------0--0h2------2---2---0h2------|
|-0-----0--------3-----------3--------------------------0------------------|

And All these days I’ve spent apart, I’ll make up for them I swear
    Em               C (strum)   Am (strum)   Em (strum)
|----------------------------------0-------------0-------------------|
|----------------------1-----------0-------------0-------------------|
|----0-------0---------0-----------2-------------0-------------------|
|---2-2----2---2-------2-----------2-------------2-------------------|
|--2---2-----3---------3-----------0-------------2-------------------|
|-0-----0--------------------------0-------------0-------------------|
I need your love to hold me up, When it’s all too much to bear
(strum)
Em   C   D    Em

Chorus 2:

When the Night falls in around me, and I don’t know what I would do
(strum)
Em   C   Am   Em

I'll use your light to guide the way, cause all I think about is you
(strum)
Em   C   D

Solo Intro:
Em  

Solo:
  Em      C          Am                  Em
|-------------------------------------------------------------------|
|--------------------7h8/10--10/12------------------------10-10/12--|
|----------------7h9-----------------9-9-9/11-11-11/12-12-----------|
|---------5h7/9-----------------------------------------------------|
|-----5h7-----------------------------------------------------------|
|-12\---------------------------------------------------------------|

  Em      C          D               Em
|-------------------------------/12-12-12-12--12-10-8-10-8-7-8-7-5-7-5-3---|
|-----12b-10-----12b-10--10h12------------------------------------------5--|
|--------------------------------------------------------------------------|
|--------------------------------------------------------------------------|
|--------------------------------------------------------------------------|
|--------------------------------------------------------------------------|




And All these days I’ve spent apart, I’ll make up for them I swear
(Strum)
Em   C   Am   Em

I need your loveto hold me up, When it’s all too much to bear
(strum)
Em   C   D    Em

Chorus 3:

When the Night falls in around me, and I don’t think I’ll make it through
(strum)
Em   C   Am   Em

I'll use your light to guide the way, cause all I think about is you
(strum)
Em   C   D   x

Ending:
    Em                         Em                      Em
|-----------------------------------------------------------------------|
|--------1---0------------------1---0------------------1---0------------|
|----------------2h4-0------------------2-2h4------------------2h4-0----|
|------2--2-------------------2--2-------------------2--2---------------|
|----2-----2----------------2-----2----------------2------2-------------|
|--0----------------------0----------------------0----------------------|

       Em (slowly)
|---------------|
|---------------|
|----0---0------|
|---2-2--2------|
|--2---2-2------|
|-0------0------|
comments
print report bad tab
I want to post or [tab]
guest
You may want to rate the tab now too:
select rating
Please do not post tabs as comments. Select "correction" instead!