Oops, an error
Loading. Please wait.

Landing In London Tab

version 7
version 7

Interactive

2,168 views 6 this week
no commentswrite comment
1 2 3 4 5
please rate
add to favorites
launch autoscroll
font size
0
reset
how to read this tab
guitar tuner
Autoscroll
slow
fast
+/-
esc
set tempo
stop
Help us to improve Ultimate-Guitar.com Take our survey!
×
I mainly did this tab for the solo because I've looked at the ones posted and they're 
not even close. I actually tabbed this from a video on youtube done by FeetInTheWater 
which may help with strumming and visually seeing it played the way it is tabbed. Hope You Enjoy!




Dadd2add4
|--------|
|----3---|
|----0---|
|----4---|
|----5---|
|--------|


Intro:
      Em                         Em                      Em
|------------------------------------------------------------------------|
|----1--------0-------------1--------0--------------1--------0-----------|
|------------------2h4-0--------------------2-2h4-------------------2h4-0|
|---2-2------2-2-----------2-2------2-2------------2-2------2-2----------|
|--2---2----2---2---------2---2----2---2----------2---2----2---2---------|
|-0-----0--0-----0-------0-----0--0-----0--------0-----0--0-----2--------|

Verse 1:

I woke up today in London...
     Em       G         Am               Em
|-------------------------------------------------------|
|-------------0----------0------------------------------|
|----0-------0----------2-2----------0----0----------0--|
|---2-------0--0-------2---2-------0h2---2-2-----0h2----|
|--2---------------2b-0-----0---0h2-----2---2--0h2------|
|-0-------3-----3----------------(0)---0----0---(0)-----|

All I could think about...
     Em       G         Am               Em
|-------------------------------------------------------|
|--------------0----------0-----------------------------|
|----0--0-----0----------2-2----------0---0----------0--|
|---2-2------0--0-------2---2-------0h2--2-2------0h2---|
|--2---2-----------2b--0-----0---0h2----2---2---0h2-----|
|-0-----0---3----3---------------(0)---0-----0---(0)----|

If this keeps me away...
     Em         C            D          Em
|----------------------------0--2--3---------------------|
|---------------1--0--------3--3--3----------------------|
|----0------0--0-0--0---2--2--2--2-----0-----------0-----|
|---2-2-------2---2--2----0--0--0-----2-2--------0h2-----|
|--2---2--2--3-----3--3--------------2---2----0h2--------|
|-0-----0---------------------------0-----0----(0)-------|

You've got to understand...
     Em         C            D          Em
|----------------------------0--2--3---------------------|
|---------------1--0--------3--3--3----------------------|
|----0-----0---0-0--0--2---2--2--2----0-----------0------|
|---2-2-------2---2--2----0--0--0----2-2-------0h2-------|
|--2---2--2--3--------3-------------2---2----0h2---------|
|-0-----0--------------------------0-----0----(0)--------|

Chorus 1:

When the night falls in...
     Em        C (strum)   Am (strum)   Em (strum)
|---------------------------------------------------------------|
|--------------1-----------1------------------------------------|
|----0-----0---0-----------2------------0------0-----------0----|
|---2-2--------2-----------2------------2-----2-2-------0h2-----|
|--2---2--2----3------------------------2----2---2----0h2-------|
|-0-----0-------------------------------0---0-----0----(0)------|

I'll use your light...
     Em        C (strum)    (strum)
|----------------------------------------------------------------|
|---------------1----------3-------------------------------------|
|----0-----0----0----------0-------------------------------------|
|---2-2---------2----------4-------------------------------------|
|--2---2--2-----3----------5-------------------------------------|
|-0-----0--------------------------------------------------------|

      Em                         Em                      Em
|------------------------------------------------------------------------|
|----1--------0-------------1--------0--------------1--------0-----------|
|------------------2h4-0--------------------2-2h4-------------------2h4-0|
|---2-2------2-2-----------2-2------2-2------------2-2------2-2----------|
|--2---2----2---2---------2---2----2---2----------2---2----2---2---------|
|-0-----0--0-----0-------0-----0--0-----0--------0-----0--0-----2--------|

Verse 2:

Well LA's getting kinda...
     Em       G         Am               Em
|------------------------------------------------------------|
|---------------0-----------0--------------------------------|
|----0-----0---0-----------2-2----------0-----0-----------0--|
|---2-2-------0---0-------2---2-------0h2----2-2-------0h2---|
|--2---2--2------------2b-0-----0---0h2-----2---2----0h2-----|
|-0-----0----3-----3----------------(0)---0------0----(0)----|
I keep my head...
     Em       G         Am               Em
|----------------------------------------------------------|
|---------------0----------0-------------------------------|
|----0-----0---0----------2-2----------0----0-----------0--|
|---2-2-------0--0-------2---2-------0h2---2-2-------0h2---|
|--2---2--2----------2b-0-----0---0h2-----2---2---0h2------|
|-0-----0----3----3----------------(0)---0-----0---(0)-----|

And All these days...
(Strum)
C   Am       Em

I need your love...
(strum)
C   Dadd2add4  Em

Chorus 2:

When the Night...
(strum)
C    Am      Em

I'll use your light
(strum)
C  Dadd2add4 Em


Solo:

|--------------------------------------------------------------------------|
|----------------------7h8/10--10/12--12------12---10---------10-----------|
|-------------------7h9----------------12--9---------12--9--12---12--9--12-|
|-------5h7/9--9--7h9------------------------------------------------------|
|----5h7-------------------------------------------------------------------|
|--------------------------------------------------------------------------|

|---------------------0----0---------------0----0--------|
|----12/14---14---12b---10---10--10h12--12b--10---10h12--|
|--------------------------------------------------------|
|--------------------------------------------------------|
|--------------------------------------------------------|
|--------------------------------------------------------|

|---------------------------------------------------------------|
|-----12/17--17-17-17-17-17-15-13-15-13-12-13-12-10-12-10-------|
|--------------------------------------------------------12-----|
|----------------------------------------------------------14---|
|---------------------------------------------------------------|
|---------------------------------------------------------------|

|---------------------------------------------------------------|
|---------------------------------------------------------------|
|---------------------------------------------------------------|
|-------14-14-14-14-12-12-12-12-9h10-9-9-9-9-7------------------|
|---------------------------------------------------------------|
|---------------------------------------------------------------|


And All these days...
(Strum)
C   Am        Em

I need your love...
(strum)
C  Dadd2add4  Em

Chorus 3:

When the Night...
(strum)
C   Am        Em

I'll use your light
(strum)
C  Dadd2add4  Em


Ending:


   Em                         Em                      Em

|------------------------------------------------------------------------|
|----1--------0-------------1--------0--------------1--------0-----------|
|------------------2h4-0--------------------2-2h4-------------------2h4-0|
|---2-2------2-2-----------2-2------2-2------------2-2------2-2----------|
|--2---2----2---2---------2---2----2---2----------2---2----2---2---------|
|-0-----0--0-----0-------0-----0--0-----0--------0-----0--0-----2--------|


           Em (slowly)
|-----------------|
|-----------------|
|----0-----0------|
|---2-2----2------|
|--2---2---2------|
|-0--------0------|
Suggest correction
Give kudos to tab author, rate the tab!
1 2 3 4 5
comments
print report bad tab
guest
You may want to rate the tab now too:
select rating
Please do not post tabs as comments. Select "correction" instead!