Oops, an error
Loading. Please wait.

Let Me Be Myself Chords

version 1
version 1

Acoustic

Whole song

Interactive

23,592 views 36 this week
1 commentread comment
1 2 3 4 5
x 12
add to favorites
launch autoscroll
font size
0
reset
transpose
0
reset
display chords
guitar tuner
Autoscroll
slow
fast
+/-
esc
set tempo
stop
Help us to improve Ultimate-Guitar.com Take our survey!
×
Author
Difficulty
[Intro]
e|---------------------------------------------------------------------|
B|--0h1------0h1--------0h1-----0h1----------------0h1-----0h1---------|
G|------0--------0---------2-------2-------------------2-------2-------|
D|--------2--------2--3-------2------2--3-2-0-0----------3------3-2\3--|
A|--3-------------------0--------------------------3-------------------|
E|---------------------------------------------------------------------|

e|-------------------------------|
B|--0h1-----0h1-----3------------|
G|------0-------0----------------|
D|--------0-------0--------------|
A|-------------------------------|
E|-------------------------------|

[Verse 1]
C                    Am
  I guess I just got lost 
              F
being someone else
                    G
I tried to kill the pain
                 C
but nothing ever helped
              Am
I left myself behind
                    F
somewhere along the way 
                    G
hoping to come back around 
               C
to find myself someday

[Pre-Chorus]
Am              C      G                           
   Lately I'm so tired of waiting for you 
Am             C       G
   to say that it's okay , tell me please... 

[Chorus]
C                          G
   Would you one time, just let me be myself 
          F
so I can shine with my own lightAm             
G
   Let me be myself

[Verse 2]
C                           Am
  'Cause I'll  never find my heart 
             F
behind someone else
                  G
I'll never see the light of day 
               C
living in this cell
                   Am
It's time to make my way 
                   F
into the world I knew
                   G
And then take back all of these times 
                  C
that I gave in to you

[Pre-Chorus]
Am              C      G                           
   Lately I'm so tired of waiting for you 
Am             C       G
   to say that it's okay , tell me please... 

[Chorus]
C                          G
   Would you one time, just let me be myself 
          F
so I can shine with my own light                   (x2)
Am              G
   Let me be myself

[Solo]
e|----------------------------------------------------------|
B|----------------------------------------------------------|
G|----------------------------------------------------------|    (x2)
D|----10--12--15--14--14-15-14------------------------------|
A|----x---x---x---x---x--x--x-------------------------------|
E|----8---10--13--12--12-13-12------------------------------|

e|-------------------------------------------------------------|
B|-------------------------------------------------------------|
G|-------------------------------------------------------------|
D|----10--12--14--15--14--12--10--12--10--/-9-/-7--------------|
A|----x---x---x---x----x---x---x---x---x--/-x-/-x--------------|
E|----8--10--12--13---12---10--8--10---8--/-7-/-5--------------|
    That's all I've ever wanted from this world

e|-----------------------------------------------------------|
B|-----------------------------------------------------------|
G|-----------------------------------------------------------|  (x2)
D|----10--12--15--14--14-15-14-------------------------------|
A|----x---x---x---x---x--x--x--------------------------------|
E|----8---10--13--12--12-13-12-------------------------------|

e|-----------------------------------------------------------|
B|-----------------------------------------------------------|
G|-----------------------------------------------------------|
D|----10--12--15--14--15-17----------------------------------|
A|----x---x---x---x---x--x-----------------------------------|
E|----8---10--13--12--13-15----------------------------------|

[Chorus]
(After solo)
e|-----------------------------------------------------0-3-----------|
B|----1---0h1------------0-------------1--0h1----------0-0-----------|
G|---0--0-----0--------0---0---------2---2-----2-------1-0-----------|
D|--2-----------2----0------0------3-------------3-----2-0-----------|
A|-3----------------2--------0---3-----------------3---2-2-----------|
E|----------------3------------------------------------0-3-----------|

C                          G
   Would you one time, just let me be myself 
          F
so I can shine with my own light                   (x20
Am              G
   Let me be myself
C                        G
   Would you one time (woo-hoo)
F            Am
   let me be myself
               C
and let me be me

[Ending]
C
Suggest correction
comments
print report bad tab
1 comment total.
0 reply
kev0306 62 May 14, 2014 08:53 AM

I feel the timing in the verses is highly incorrect.

guest
You may want to rate the tab now too:
select rating
Wanna post a correction for this tab? Suggest correction