Oops, an error
Loading. Please wait.

Let Me Go Tab

version 2
version 2

Whole song

Interactive

89,879 views 51 this week
18 commentsread comments
1 2 3 4 5
x 48
add to favorites
launch autoscroll
font size
0
reset
how to read this tab
guitar tuner
×
Best way to learn
"Let Me Go"
Autoscroll
slow
fast
+/-
esc
set tempo
stop
LET ME GO
3 Doors Down
Track number 3 from Seventeen days
Tabbed By: Mariano Arnaiz
Anything to : marianoarnaiz@hotmail.com
Tunning: standar
There is a second guitar but i couldnt tab it but here is the main guitar mixed
with some parts of the  so enjoy.

 [Intro]
   C#       B      A       B                     C#        B      F#m      A
e|-0-0-0-0--0-0-0--0-0-0---0-0-0--------------|-------------------------------|
B|-0-0-0-0--0-0-0--0-0-0---0-0-0--------0h2-0-|-0-0-0-0---0-0-0-----------0---|
G|-4h6-6-6--4-4-4--2-2-2---4-4-4----4---------|-4h6-6-6---4-4-4---2-2-2---2..-|
D|-4h6-6-6--4-4-4--2-2-2---4-4-4-/4---4-------|-4h6-6-6---4-4-4---4-4-4---2..-|
A|-4h4-4-4--2-2-2--0-0-0---2-2-2--------------|-4h4-4-4---2-2-2---4-4-4---0..-|
E|--------------------------------------------|-------------------2-2-2-------|

[Verse 1]
 
   C#       B      A       B                     C#        B     A       B   
e|-0-0-0-0--0-0-0--0-0-0---0-0-0--------------||-0-0-0-0--0-0-0--0-0-0---0-0-0--/14-------|
B|-0-0-0-0--0-0-0--0-0-0---0-0-0--------0h2-0-||-0-0-0-0--0-0-0--0-0-0---0-0-0------12----|
G|-4h6-6-6--4-4-4--2-2-2---4-4-4----4---------||-4h6-6-6--4-4-4--2-2-2---4-4-4---------11-|
D|-4h6-6-6--4-4-4--2-2-2---4-4-4-/4---4-------||-4h6-6-6--4-4-4--2-2-2---4-4-4------------|
A|-4h4-4-4--2-2-2--0-0-0---2-2-2--------------||-4h4-4-4--2-2-2--0-0-0---2-2-2------------|
E|--------------------------------------------||------------------------------------------|
One more kiss could be the best thing          One more lie could be the worst
 
  C#       B      A       B                     C#        B     A       B   
e|-0-0-0-0--0-0-0--0-0-0---0-0-0--------------||-0-0-0-0--0-0-0--0-0-0---0-0-0--|
B|-0-0-0-0--0-0-0--0-0-0---0-0-0--------0h2-0-||-0-0-0-0--0-0-0--0-0-0---0-0-0--|
G|-4h6-6-6--4-4-4--2-2-2---4-4-4----4---------||-4h6-6-6--4-4-4--2-2-2---4-4-4--|
D|-4h6-6-6--4-4-4--2-2-2---4-4-4-/4---4-------||-4h6-6-6--4-4-4--2-2-2---4-4-4--|
A|-4h4-4-4--2-2-2--0-0-0---2-2-2--------------||-4h4-4-4--2-2-2--0-0-0---2-2-2--|
E|--------------------------------------------||--------------------------------|
And all these thoughts are never resting       And you're not something I deserve


 [Pre-Chorus]
  C#   B            G#      A         E   F#        A     A
e|-0---0------------0-------0---------0---0---------0-----0-|
B|-0---0------------0-------0---------0---0---------0-(9)-0-| play these twice 
G|-6---4------------0---------------------0---------2-(9)-2-| (once for each verse line)
D|-6---4------------6-------7---------2---4---------2-(9)-2-| Strum the chors a few times 
A|-4---2------------6-------5---------2---4---------0-----0-| while the other one comes in
E|------------------4-------5---------0---2-----------------|
 In my head there's only you now   This world falls on me
 In.. world,   there's.. make..    This seems real to me

[Chorus]

e|--0-0-0--0-0-0---0-0-0-0---0-0-0-|--0-0-0-0---0-0-0---0-0-0-0---0-0-0-|
B|--0-0-0--0-0-0---0-0-0-0---0-0-0-|--0-0-0-0---0-0-0---0-0-0-0---0-0-0-|
G|---------4-4-4---4h6-6-6---2-2-2-|--4h6-6-6---4-4-4---4h6-6-6---2-2-2-|
D|--2-2-2--4-4-4---4h6-6-6---2-2-2-|--4h6-6-6---4-4-4---4h6-6-6---2-2-2-|
A|--2-2-2--2-2-2---4h4-4-4---0-0-0-|--4h4-4-4---2-2-2---4h4-4-4---0-0-0-|
E|--0-0-0--------------------------|------------------------------------|
You .....love ... know I am.....   I'm .......Torn ....lead...  I stand

e|--0-0-0--0-0-0---0-0-0-0---0-0-0-|--0-0-0-0---0-0-0---0-0-0-0--0-0-0-|
B|--0-0-0--0-0-0---0-0-0-0---0-0-0-|--0-0-0-0---0-0-0---0-0-0-0--0-0-0-|
G|---------4-4-4---4h6-6-6---2-2-2-|--4h6-6-6---4-4-4------------------|
D|--2-2-2--4-4-4---4h6-6-6---2-2-2-|--4h6-6-6---4-4-4---6-6-6----7-7-7-|
A|--2-2-2--2-2-2---4h4-4-4---0-0-0-|--4h4-4-4---2-2-2---6-6-6----7-7-7-|
E|--0-0-0--------------------------|--------------------4-4-4----5-5-5-|
You ......love ... know... I am...  So ....let me go.. me go 


Breakdown middle

  C#       B      A       B                     C#        B      F#m      A
e|-0-0-0-0--0-0-0--0-0-0---0-0-0--------------|---------------------------------|
B|-0-0-0-0--0-0-0--0-0-0---0-0-0--------0h2-0-|-0-0-0-0---0-0-0-----------0-----|
G|-4h6-6-6--4-4-4--2-2-2---4-4-4----4---------|-4h6-6-6---4-4-4---2-2-2---2-----|
D|-4h6-6-6--4-4-4--2-2-2---4-4-4-/4---4-------|-4h6-6-6---4-4-4---4-4-4---2-4-2-|
A|-4h4-4-4--2-2-2--0-0-0---2-2-2--------------|-4h4-4-4---2-2-2---4-4-4---0-x-0-|
E|--------------------------------------------|-------------------2-2-2---------|

Verse 2 (same as verse 1)

  C#       B      A       B                     C#        B     A       B   
e|-0-0-0-0--0-0-0--0-0-0---0-0-0--------------||-0-0-0-0--0-0-0--0-0-0---0-0-0--/14-------|
B|-0-0-0-0--0-0-0--0-0-0---0-0-0--------0h2-0-||-0-0-0-0--0-0-0--0-0-0---0-0-0------12----|
G|-4h6-6-6--4-4-4--2-2-2---4-4-4----4---------||-4h6-6-6--4-4-4--2-2-2---4-4-4---------11-|
D|-4h6-6-6--4-4-4--2-2-2---4-4-4-/4---4-------||-4h6-6-6--4-4-4--2-2-2---4-4-4------------|
A|-4h4-4-4--2-2-2--0-0-0---2-2-2--------------||-4h4-4-4--2-2-2--0-0-0---2-2-2------------|
E|--------------------------------------------||------------------------------------------|
I dream ahead to what I hope for               And I turn my back on loving you
 
  C#       B      A       B                     C#        B     A       B   
e|-0-0-0-0--0-0-0--0-0-0---0-0-0--------------||-0-0-0-0--0-0-0--0-0-0---0-0-0--|
B|-0-0-0-0--0-0-0--0-0-0---0-0-0--------0h2-0-||-0-0-0-0--0-0-0--0-0-0---0-0-0--|
G|-4h6-6-6--4-4-4--2-2-2---4-4-4----4---------||-4h6-6-6--4-4-4--2-2-2---4-4-4--|
D|-4h6-6-6--4-4-4--2-2-2---4-4-4-/4---4-------||-4h6-6-6--4-4-4--2-2-2---4-4-4--|
A|-4h4-4-4--2-2-2--0-0-0---2-2-2--------------||-4h4-4-4--2-2-2--0-0-0---2-2-2--|
E|--------------------------------------------||--------------------------------|
How can this love be a good thing?            I not know what I'm going through


 [Pre-Chorus]
 #   B            G#      A         E   F#        A     A
e|-0---0------------0-------0---------0---0---------0-----0-|
B|-0---0------------0-------0---------0---0---------0-(9)-0-| play these twice 
G|-6---4------------0---------------------0---------2-(9)-2-| (once for each verse line)
D|-6---4------------6-------7---------2---4---------2-(9)-2-| Strum the chors a few times 
A|-4---2------------6-------5---------2---4---------0-----0-| while the other one comes in
E|------------------4-------5---------0---2-----------------|
 In my head there's only you now   This world falls on me
 In.. world,   there's.. make..    This seems real to me

[Chorus]

e|--0-0-0--0-0-0---0-0-0-0---0-0-0-|--0-0-0-0---0-0-0---0-0-0-0---0-0-0-|
B|--0-0-0--0-0-0---0-0-0-0---0-0-0-|--0-0-0-0---0-0-0---0-0-0-0---0-0-0-|
G|---------4-4-4---4h6-6-6---2-2-2-|--4h6-6-6---4-4-4---4h6-6-6---2-2-2-|
D|--2-2-2--4-4-4---4h6-6-6---2-2-2-|--4h6-6-6---4-4-4---4h6-6-6---2-2-2-|
A|--2-2-2--2-2-2---4h4-4-4---0-0-0-|--4h4-4-4---2-2-2---4h4-4-4---0-0-0-|
E|--0-0-0--------------------------|------------------------------------|
You .....love ... know I am.....   I'm .......Torn ....lead...  I stand

e|--0-0-0--0-0-0---0-0-0-0---0-0-0-|--0-0-0-0---0-0-0---0-0-0-0--0-0-0-|
B|--0-0-0--0-0-0---0-0-0-0---0-0-0-|--0-0-0-0---0-0-0---0-0-0-0--0-0-0-|
G|---------4-4-4---4h6-6-6---2-2-2-|--4h6-6-6---4-4-4------------------|
D|--2-2-2--4-4-4---4h6-6-6---2-2-2-|--4h6-6-6---4-4-4---6-6-6----7-7-7-|
A|--2-2-2--2-2-2---4h4-4-4---0-0-0-|--4h4-4-4---2-2-2---6-6-6----7-7-7-|
E|--0-0-0--------------------------|--------------------4-4-4----5-5-5-|
You ......love ... know... I am...  So ....let me go.. me go 

 [Bridge]
   C#      E        B     A
e|-------------------------------|
B|-4-------7-------9-------------|
G|---6-------9-------9-----9-8---| PLAY 5 TIMES OR STRUMS THE CHORDS ABOVE
D|-----6-------9-------9-------9-|
A|-------------------------------|
E|-------------------------------|
   Let me go let me go
And......matter  I can't..these...
I        know    I        know
When..pieces     You....one....
Who      knows....
 

[Chorus]

e|--0-0-0--0-0-0---0-0-0-0---0-0-0-|--0-0-0-0---0-0-0---0-0-0-0---0-0-0-|
B|--0-0-0--0-0-0---0-0-0-0---0-0-0-|--0-0-0-0---0-0-0---0-0-0-0---0-0-0-|
G|---------4-4-4---4h6-6-6---2-2-2-|--4h6-6-6---4-4-4---4h6-6-6---2-2-2-|
D|--2-2-2--4-4-4---4h6-6-6---2-2-2-|--4h6-6-6---4-4-4---4h6-6-6---2-2-2-|
A|--2-2-2--2-2-2---4h4-4-4---0-0-0-|--4h4-4-4---2-2-2---4h4-4-4---0-0-0-|
E|--0-0-0--------------------------|------------------------------------|
You .....love ... know I am.....   I'm .......Torn ....lead...  I stand

e|--0-0-0--0-0-0---0-0-0-0---0-0-0-|--0-0-0-0---0-0-0---0-0-0-0--0-0-0-|
B|--0-0-0--0-0-0---0-0-0-0---0-0-0-|--0-0-0-0---0-0-0---0-0-0-0--0-0-0-|
G|---------4-4-4---4h6-6-6---2-2-2-|--4h6-6-6---4-4-4------------------|
D|--2-2-2--4-4-4---4h6-6-6---2-2-2-|--4h6-6-6---4-4-4---6-6-6----7-7-7-|
A|--2-2-2--2-2-2---4h4-4-4---0-0-0-|--4h4-4-4---2-2-2---6-6-6----7-7-7-|
E|--0-0-0--------------------------|--------------------4-4-4----5-5-5-|
You ......love ... know... I am...  So ....let me go.. me go 


[Outro]

   E        B      C#      A            C#     B      C#      A  
e|-0-0-0-0--0-0-0--0-0-0---0-0-0--|   |-0-0-0--0-0-0--0-0-0---0-0-0--|
B|-0-0-0-0--0-0-0--0-0-0---0-0-0--|   |-0-0-0--0-0-0--0-0-0---0-0-0--|
G|----------4-4-4--6-6-6---2-2-2--|   |-6-6-6--4-4-4--6-6-6---2-2-2--| PLAY TWICE
D|-2-2-2-2--4-4-4--6-6-6---2-2-2--|   |-6-6-6--4-4-4--6-6-6---2-2-2--| THIS 
A|-2-2-2-2--2-2-2--4-4-4---0-0-0--|   |-4-4-4--2-2-2--4-4-4---0-0-0--|
E|-0-0-0-0------------------------|   |------------------------------|
 You       love   You love me...    You love me but .... know who I am
                                    You love me but ...me but you don't

   C#     B      C#      A  
e|-0-0-0--0-0-0--0-0-0---0-0-0--|
B|-0-0-0--0-0-0--0-0-0---0-0-0--|
G|-6-6-6--4-4-4--6-6-6---2-2-2--| 
D|-6-6-6--4-4-4--6-6-6---2-2-2--|  
A|-4-4-4--2-2-2--4-4-4---0-0-0--|
E|------------------------------|
 You love me but you don't know me
Suggest correction
comments
print report bad tab
18 comments total. Showing first comments.
+1 reply
billytalent4pre 10 Mar 28, 2005 07:00 PM

Thanks for putting in the lyrics and the proper timing. It helps.

0 reply
Silum 30 Apr 06, 2005 08:00 PM

should be 5 strums of the B, but great tab anyway... 5stars

0 reply
marianoarnaiz 1,521 Apr 14, 2005 08:00 PM

Tnx dudes i made my best on this tab

guest
You may want to rate the tab now too:
select rating
Wanna post a correction for this tab? Suggest correction