Oops, an error
Loading. Please wait.

Life Of My Own Tab

version 3
version 3

Whole song

Interactive

1,502 views 3 this week
no commentswrite comment
1 2 3 4 5
please rate
add to favorites
launch autoscroll
font size
0
reset
how to read this tab
guitar tuner
Tab Pro tools
  • play this tab
  • loop segment
  • change instrument
  • show fretboard
  • metronome
×
Best way to learn
"Life Of My Own"
Autoscroll
slow
fast
+/-
esc
set tempo
stop
Contributor
Difficulty
intermediate
Tab: 3 Doors Down / Life of my own / The better Life
Tabber: Karl Steinegger / karl@steinegger.or.at


Moderately fast = 134
Tuning: E A D G B E


Intro:

E|------------------------|------------------------|------------------------|------------------------|
B|-------0----------------|------------------------|--------0---------------|------------------------|
G|------------------------|--------------0---------|------------------------|--------------0---------|
D|----------------0-------|------------------------|----------------0-------|------------------------|
A|----7--------7----------|---9------9-------9-----|----7---------7---------|---9------9-------9-----|
E|--0-------8--------/10--|------10------------0---|--0--------8-------/10--|------10------------0---|


E|------------------------|------------------------|------------------------|------------------------|
B|-------0----------------|------------------------|--------0---------------|------------------------|
G|------------------------|--------------0---------|------------------------|------------------------|
D|----------------0-------|------------------------|----------------0-------|------------------------|
A|----7--------7-----7----|---9------9-------9-----|----7--------7-----7-9--|------------------------|
E|--0-------8----------10-|------10------------0---|--0-------8----------10-|------------------------|

E|------------------------|------------------------|------------------------|------------------------|
B|-------0----------------|------------------------|--------0---------------|------------------------|
G|------------------------|--------------0---------|------------------------|--------------0---------|
D|----------------0-------|------------------------|----------------0-------|------------------------|
A|----7--------7-----7----|---9------9-------9-----|----7--------7-----7----|---9------9-------9-----|
E|--0-------8----------10-|------10------------0---|--0-------8----------10-|------10------------0---|

E|------------------------|------------------------|-------------------------|-----------------------|
B|-------0----------------|------------------------|--------0----------------|-----------------------|
G|------------------------|--------------0---------|-------------------------|-----------------------|
D|----------------0-------|------------------------|----------------0--------|-----------------------|
A|----7--------7-----7----|---9------9-------9-----|----7--------7-----7-/9--|-----------------------|
E|--0-------8----------10-|------10------------0---|--0-------8----------/10-|-----------------------|

Verse:
0:29

    Em      C          D(11)                           Em      C           D(11)
E|--X-------X----------X--|------------------------|--X-------X-----------X--|------------------------|
B|--0-------X----------X--|------------------------|--0-------X-----------X--|------------------------|
G|--0-------X----------0--|------------------------|--0-------X-----------0--|------------------------|
D|--X-------0----------X--|------------------------|--X-------0-----------X--|------------------------|
A|--7-------7----------9--|------------------------|--7-------7-----------9--|------------------------|
E|--0-------8----------10-|------------------------|--0-------8-----------10-|------------------------|

1.  Livin’ risky       ne-ver scared, ______           wander clos - er   to the edge. _______
2.  Lookin’ forward    not be – hind, ______           ev-‘ry-bod-y’s got to cross that line ____


    Em      C          D(11)                           Em      C           D(11)
E|--X-------X----------X--|------------------------|--X-------X-----------X--|------------------------|
B|--0-------X----------X--|------------------------|--0-------X-----------X--|------------------------|
G|--0-------X----------0--|------------------------|--0-------X-----------0--|------------------------|
D|--X-------0----------X--|------------------------|--X-------0-----------X--|------------------------|
A|--7-------7----------9--|------------------------|--7-------7-----------9--|------------------------|
E|--0-------8----------10-|------------------------|--0-------8-----------10-|------------------------|

1.  Noth-in’ val-ued    think no fear, _______          always wond’ring why you’re here _______
2.  Free me ___ now to  give me a place ______          keep me caged and free the beast _______


    Em       G              D                         Em       G              D 
E|--X--------3------------|-2----------------------|--X--------3------------|-2----------------------|
B|--0--------0------------|-3----------------------|--0--------0------------|-3----------------------|
G|--0--------0------------|-2----------------------|--0--------0------------|-2----------------------|
D|--X--------0------------|-0----------------------|--X--------0------------|-0----------------------|
A|--7--------2------------|-X----------------------|--7--------2------------|-X----------------------|
E|--0--------3------------|-X----------------------|--0--------3------------|-X----------------------|

1.  All your pur – pos - es __ are gone ________      noth-in’ right and noth-in’ wrong _____
2.  Falling  faster      time goes by __________      fear is not seen through these eyes ___



    Em       G              D                         Em       G              D 
E|--X--------3------------|-2----------------------|--X--------3------------|-2----------------------|
B|--0--------0------------|-3----------------------|--0--------0------------|-3----------------------|
G|--0--------0------------|-2----------------------|--0--------0------------|-2----------------------|
D|--X--------0------------|-0----------------------|--X--------0------------|-0----------------------|
A|--7--------2------------|-X----------------------|--7--------2------------|-X----------------------|
E|--0--------3------------|-X----------------------|--0--------3------------|-X----------------------|

1.  Noth-ing ventured and noth-in’ gained ______       feel no sorrow,  feel ___ no pain ______
2.  What there was will nev __er be ______             now I’m blind and  can __ not see ______


Chorus :
0:58

    E5       G5     D5                                E5       G5     D5
E|--X--------X------X-----|------------------------|--X--------X------X-----|------------------------|
B|--X--------X------3-----|------------------------|--X--------X------3-----|------------------------|
G|--X--------0------2-----|------------------------|--X--------0------2-----|------------------------|
D|-\2--------0------0-----|------------------------|--2--------0------0-----|------------------------|
A|-\2--------X------X-----|------------------------|--2--------X------X-----|------------------------|
E|-\0--------3------X-----|------------------------|--0--------3------X-----|------------------------|

     Kiss me while I’m still alive ___________         kill me while I kiss the sky ___________


    E5       G5     D5                                E5       G5     D5
E|--X--------X------X-----|------------------------|--X--------X------X-----|------------------------|
B|--X--------X------3-----|------------------------|--X--------X------3-----|------------------------|
G|--X--------0------2-----|------------------------|--X--------0------2-----|------------------------|
D|--2--------0------0-----|------------------------|--2--------0------0-----|------------------------|
A|--2--------X------X-----|------------------------|--2--------X------X-----|------------------------|
E|--0--------3------X-----|------------------------|--0--------3------X-----|------------------------|

    Let me die on my own terms ___________             let me live and let me learn ____



    E5       G5     D5                                E5       G5     D5
E|--X--------X------X-----|------------------------|--X--------X------X-----|------------------------|
B|--X--------X------3-----|------------------------|--X--------X------3-----|------------------------|
G|--X--------0------2-----|------------------------|--X--------0------2-----|------------------------|
D|--2--------0------0-----|------------------------|--2--------0------0-----|------------------------|
A|--2--------X------X-----|------------------------|--2--------X------X-----|------------------------|
E|--0--------3------X-----|------------------------|--0--------3------X-----|------------------------|

    Now I’ll follow my ___ own way _________ and I’ll___live on to another damn day ____


    E5       G5     D5                                E5       G5     C5
E|--X--------X------X-----|------------------------|--X--------X------X-----|------------------------|
B|--X--------X------3-----|------------------------|--X--------X------X-----|------------------------|
G|--X--------0------2-----|------------------------|--X--------0------X-----|------------------------|
D|--2--------0------0-----|------------------------|--2--------0------5-----|------------------------|
A|--2--------X------X-----|------------------------|--2--------X------3-----|------------------------|
E|--0--------3------X-----|------------------------|--0--------3------X-----|------------------------|

    Freedom carries sacrifice _______                  remember when this was my __________  my _____


    vibrato ~~~~~~~~~~~~~~~~~~~~~~~~~~~~~~~~~~~~~~~~~~~~~~~~~~~~~~~~~~~~~~~~~~~~~~~~~~~~~~~~~~~~~~~~
E|------------------------|------------------------|------------------------|------------------------|
B|------------------------|------------------------|------------------------|------------------------|
G|------------------------|------------------------|------------------------|------------------------|
D|------------------------|------------------------|------------------------|------------------------|
A|-7----------------------|------------------------|------------------------|------------------------|
E|------------------------|------------------------|------------------------|------------------------|
   life (echo repeats)

     harmonic ______________________________________________________________________________________
E|12+---------------------|------------------------|------------------------|------------------------|
B|------------------------|------------------------|------------------------|------------------------|
G|------------------------|------------------------|------------------------|------------------------|
D|------------------------|------------------------|------------------------|------------------------|
A|------------------------|------------------------|------------------------|------------------------|
E|------------------------|------------------------|------------------------|------------------------|
  life (echo repeats)


2:39

Guitar Solo :  Em, C, D(11)     (will tab later)
               Em, G, D




Chorus :	see above





Outro :

    Em     G    D ___________________________________________________________ Em   G  D
E|------------------------|------------------------|------------------------|------------------------|
B|------------------------|------------------------|------------------------|------------------------|
G|------------------------|------------------------|------------------------|------------------------|
D|------------------------|------------------------|------------------------|--------7---------------|
A|------------------------|------------------------|------------------------|-2---2--5---------------|
E|------------------------|------------------------|------------------------|-0---3------------------|

    life _________   (echo repeats)





| /  slide up				| p  pull-off
| \  slide down				| ~  vibrato
| h  hammer-on				| b  bend 
| +  harmonic				| x  Mute note
| r release
comments
We did not receive enough feedback on this tab! Please rate:
print report bad tab
1 2 3 4 5
I want to post or [tab]
guest
You may want to rate the tab now too:
select rating
Please do not post tabs as comments. Select "correction" instead!