Oops, an error
Loading. Please wait.

Life Of My Own Tab

version 4
version 4

Whole song

Interactive

685 views 1 this week
no commentswrite comment
1 2 3 4 5
please rate
add to favorites
launch autoscroll
font size
0
reset
how to read this tab
guitar tuner
Autoscroll
slow
fast
+/-
esc
set tempo
stop
Help us to improve Ultimate-Guitar.com Take our survey!
×
Author
This is an easy song to learn. Easy but fun to play if your just chilling out. No
one else had a tab for this song and I think that this is right.

Intro/Verse part 1
G---------------------------------------------------------------------|
D-------------------5h7-----------------------------------------------|
A--7---3---5---5h7----------------------------------------------------|
E---------------------------------------------------------------------|
     Come in with the drums at 0:15
Intro/Verse part 2
G---------------------------------------------------------------------|
D------------------------------------------5h7------------------------|
A--0--3--7--12--10-9-10---7---3---5---5h7------0--3--7--12--10-9-10---|
E---------------------------------------------------------------------|
     Comes in at 0:46
Chorus
G---------------------------------------------------------------------|
D---------------------------------------------------------------------|
A--------2-22-22--------5-55-55---------------------------------------|
E0--0--00-------0--0--00----------------------------------------------|

Bridge is the same as the Intro/Verse
Just listen to the song for the order.
Enjoy!!
Suggest correction
What's this?
You can suggest a correction to this tab. Community and Mods will review your correction and vote to approve or reject it.
comments
We did not receive enough feedback on this tab! Please rate:
print report bad tab
1 2 3 4 5
guest
You may want to rate the tab now too:
select rating
Please do not post tabs as comments. Select "correction" instead!