Oops, an error
Loading. Please wait.

Live For Today Tab

573 views 3 this week
no commentswrite comment
1 2 3 4 5
please rate
add to favorites
launch autoscroll
font size
0
reset
how to read this tab
guitar tuner
Autoscroll
slow
fast
+/-
esc
set tempo
stop
Help us to improve Ultimate-Guitar.com Take our survey!
×
Author
Difficulty
Tuning
advanced
D A D G B E
-------------------------------------------------------------------------------
                             Live for Today - 3 Doors Down
-------------------------------------------------------------------------------
Tabbed by: Phizzo
E-mail: phizzie@hotmail.de

Tuning:  D-A-D-G-B-E (Dropped D)


Notes:
That's only as far as I got. I will update the tab when I have time.
Please click this link, if you want to support me: http://j.gs/1TC6 ! Only 5s of your time
-------------------------------------------------------------------------------
Intro
======

e|---------------------------------------------------------------------------|
B|---------------------------------------------------------------------------|
G|---------------------------------------4h5---4h5-4h5--5--------------------|
D|-3---3-3---3-----3h5---3h5--3h5-3-0----4h5---4h5-4h5--5--------------------|
A|-3---3-3---3-----3h5---3h5--3h5-3-0----2h3---2h3-2h3--3--------------------|
D|-3---3-3---3-----3h5---3h5--3h5-3-0-------------------0--------------------|

e|---------------------------------------------------------------------------|
B|---------------------------------------------------------------------------|
G|---------------------------------------------------------------------------|
D|---------------------------------------------------------------------------|
A|---------------------------------------------------------------------------|
D|---------------------------------------------------------------------------|

Verse
======
1st Guitar (keep playing that)

     Show....find
e|---------------------------------------------------------------------------|
B|-----3---------1-----------------------------------------------------------|
G|---2-----------3-----------------------------------------------------------|
D|-0-----------3-------------------------------------------------------------|
A|-----------1---------------------------------------------------------------|
D|---------------------------------------------------------------------------|

2nd Guitar (comes in after some time)
e|---------------------------------------------------------------------------|
B|---------------------------------------------------------------------------|
G|---------------------------------------------------------------------------|
D|-------------------3---2---------------------------------------------------|
A|---7---5---0---0-1---1---1-3-----------------------------------------------|
D|-0---0---0---0-------------------------------------------------------------|


Main part
======

e|---------------------------------------------------------------------------|
B|---------------------------------------------------------------------------|
G|-2h3-5-5---2h3--5-5---7----------------------------------------------------|
D|-2h3-5-5---2h3--5-5---7----------------------------------------------------|
A|-2h3-3-3---2h3--3-3---5----------------------------------------------------|
D|----------------------0----------------------------------------------------|

e|---------------------------------------------------------------------------|
B|---------------------------------------------------------------------------|
G|---------------------------------------------------------------------------|
D|---------------------------------------------------------------------------|
A|---------------------------------------------------------------------------|
D|---------------------------------------------------------------------------|

Please click this link, if you want to support me: http://j.gs/1TC6 ! Only 5s of your time
************************************

| /   slide up
| \   slide down
| h   hammer-on
| p   pull-off
| ~   vibrato
| +   harmonic
| x   Mute note
| b   Bend
| pb  Pre-bend
| br  Bend release
| pbr Pre-bend release
| brb Bend release bend

************************************

Please click this link, if you want to support me: http://j.gs/1TC6 ! Only 5s of your time
Suggest correction
Give kudos to tab author, rate the tab!
1 2 3 4 5
comments
print report bad tab
guest
You may want to rate the tab now too:
select rating
Please do not post tabs as comments. Select "correction" instead!