Oops, an error
Loading. Please wait.

Loser Tab

version 2
version 2

Whole song

Interactive

28,299 views 3 this week
2 commentsread comments
1 2 3 4 5
accurate
x 10
add to favorites
launch autoscroll
font size
0
reset
how to read this tab
guitar tuner
Autoscroll
slow
fast
+/-
esc
set tempo
stop
Help us to improve Ultimate-Guitar.com Take our survey!
×
Contributor
Difficulty
BAZ616 48
novice
This is the first tab i sent in so hey let me know what u think

intro

e|-----------0-----0----------0------|
B|--------------0----3----------0----|
G|--3--3-------------2----2----------|        play twice
D|--4-----4------------------0-------|
A|--4--------------------------------|
E|--2--------------------------------|

Verse

e|-------------0--0-----------------------0---0----0--------------0--0---|
B|-------------3--3-----------------------3-----3----3------------3--3---|
G|--3--3--3----2--2---------------3--3----2-------2----2--3--3----2--2---|
D|--4--4--4----0--0---------------4--4----0--------------4--4-----0--0---|
A|--4--4--4------------0--2--0----4--4-------------------4--4------------|
E|--2--2--2-----------------------2--2-------------------2--2------------|

Chorus

e|----------------0--0-----------------------------------------------|
B|----------------3--3----0---0----0---------------------------------|
G|-0--0-----------2--2----2---2----2p-0------------------------------|
D|-2--2----4--4---0--0----2---2----2p-0------------------------------|
A|-2--2----4--4-----------0---0----0---------------------------------|
E|-0--0----2--2------------------------------------------------------|

interlude

e|---------------------------|
B|---------------------------|
G|----------5/3-------3--5---|
D|--2---4---5/3--0--0-3--5---|        repet four times
A|--2---4---3/1--0--0-1--3---|
E|--2---2--------------------|


solo

e|---------------------------------------------------|
B|---------------------------------------------------|
G|--2/4----2-2-2/4-4-4/6-6-6/7-7-7/9-9-9/11-11/13----|
D|-------2-------------------------------------------|
A|---------------------------------------------------|
E|---------------------------------------------------|

e|---------------------------------------------------|
B|---------------------------------------------------|
G|-14-13-11-13-9-11-7-9-6-7-----------------------1--|
D|--------------------------7-9--5-7----------2-2----|
A|------------------------------------9-7/2-4--------|
E|---------------------------------------------------|

e|---------------------------------------------------|
B|---------------------------------------------------|
G|--1--2-2/4-4-4/6-6-6/7-7-7/9-----------------------|
D|---------------------------------------------------|
A|---------------------------------------------------|
E|---------------------------------------------------|

then the chours till the end of the song.

have fun :)
comments
print report bad tab
2 comments total. show 1 bad comment
0 reply
slashjr 2464 10 wrote on August 18 2008, 03:17 pm

pretty good

I want to post or [tab]
guest
You may want to rate the tab now too:
select rating
Please do not post tabs as comments. Select "correction" instead!