Oops, an error
Loading. Please wait.

Loser Tab

version 3
version 3

Whole song

Interactive

30,647 views 87 this week
2 commentsread comments
1 2 3 4 5
excellent!
x 10
add to favorites
launch autoscroll
font size
0
reset
how to read this tab
guitar tuner
Autoscroll
slow
fast
+/-
esc
set tempo
stop
Help us to improve Ultimate-Guitar.com Take our survey!
×
Difficulty
novice
Michel Teelen's tab of loser.

Three Doors Down - Loser

F#    = 2-4-4-3-2-2    h   = hammer on
Dadd9 = x-x-0-2-3-0    --- = hold chord
E5    = 0-2-2-x-x-x
F#5   = 2-4-4-x-x-x
D5    = x-5-7-7-x-x
A5    = 5-7-7-x-x-x
C5    = x-3-5-5-x-x
B5    = x-2-4-4-x-x
F5    = 1-3-3-x-x-x


Riff 1:
e |---------0----------------0--------|
B |-----2-----2---2-----3------3---3--|
G |---3---3-----3-----2---2------2----|
D |-4---------------0-----------------|
A |-----------------------------------|
E |-----------------------------------|

Riff 2:
D |--------|
A |-0h2-0--|
E |--------|

 (riff 1)       (riff 1)
|F#   |Dadd9   |F#   |Dadd9   |
(riff 1)       (riff 1)
|F#   |Dadd9   |F#   |Dadd9   |

                                   (riff 2)
|F#     |Dadd9       |F#     |Dadd9       |
                                   (riff 2)
|F#     |Dadd9       |F#     |Dadd9       |

F#                Dadd9
Breathe in right away 
F#               Dadd9(+ riff 2)
Nothing seems to fill this place
  F#              Dadd9(+ riff 2)
I need this every time
F#                 Dadd9(+riff 2) 
Take your lies get off my case
F#              Dadd9
Some day I will find
  F#                      Dadd9(+ riff 2)
A love that flows through me like this
F#              Dadd9(+ riff 2)
This will fall away 
F#             Dadd9
This will fall away

E5              F#5        D5                E5
 You’re getting closer, to pushing me off of life’s little edge
E5           F#5       D5                  E5
 Cause I’m a loser and sooner or later you know I’ll be dead
E5              F#5            D5                       E5
 You’re getting closer, you’re holding the rope and I'm taking the fall
E5           F#5   D5---
 Cause I’m a loser, I’m a loser, yeah

                                   (riff 2)
|F#     |Dadd9       |F#     |Dadd9       |
                                   (riff 2)
|F#     |Dadd9       |F#     |Dadd9       |

This is getting old 
I can’t break these chains that I hold
My body’s growing cold 
There’s nothing left of this mind or my soul
Addiction needs a pacifier 
The buzz of this poison is taking me higher
This will fall away
This will fall away

E5              F#5        D5                E5
 You’re getting closer, to pushing me off of life’s little edge
E5           F#5       D5                  E5
 Cause I’m a loser and sooner or later you know I’ll be dead
E5              F#5            D5                       E5
 You’re getting closer, you’re holding the rope and I'm taking the fall
E5           F#5   D5---
 Cause I’m a loser, I’m a loser

|F#5  A5  C5  B5  |E5  %  F  F#5  |
|F#5  A5  C5  B5  |E5  %  F  F#5  |
|F#5  A5  C5  B5  |E5  %  F  F#5  |
|F#5  A5  C5  B5  |E5  %  F  F#5  |
|F#5  A5  C5  B5  |E5  %  F  F#5  |
|F#5  A5  C5  B5  |E5  %  F  F#5  |
|F#5  A5  C5  B5  |E5-----------  |

Solo:
e |--------------------------------------------------------|
B |---------------------------------------------10---------|
G |----------------------9--------------9-9-9-9----11-11~~-|
D |-11-11-12~~--------9----11h12-12-12---------------------|
A |-------------12-12—-------------------------------------|
E |--------------------------------------------------------|

e |--------------------------------------|
B |-10-9-----9---------------------------|
G |-------11---11-9-11-9-7-9-7-6h7-6-4-2-|
D |--------------------------------------|
A |--------------------------------------|
E |--------------------------------------|

e |---------------------------------------------5-----|
B |-----------------------------------------------2h3-|
G |---------2h4---------------2-1-1h2---2-2-2h4-------|
D |-2h4-4-4-----2-4---2h4-4-4-------------------------|
A |---------------------------------------------------|
E |---------------------------------------------------|

(solo)
                                   (riff 2)
|F#     |Dadd9       |F#     |Dadd9       |
                                   (riff 2)
|F#     |Dadd9       |F#     |Dadd9       |

E5              F#5        D5                E5
 You’re getting closer, to pushing me off of life’s little edge
E5           F#5       D5                  E5
 Cause I’m a loser and sooner or later you know I’ll be dead
E5              F#5            D5                       E5
 You’re getting closer, you’re holding the rope and I'm taking the fall
E5           F#5   D5---
 Cause I’m a loser

E5              F#5        D5                E5
 You’re getting closer, to pushing me off of life’s little edge
E5           F#5       D5                  E5
 Cause I’m a loser and sooner or later you know I’ll be dead
E5              F#5            D5                       E5
 You’re getting closer, you’re holding the rope and I'm taking the fall
E5           F#5   D5---
 Cause I’m a loser



---------------------------------------------------------------------------------------
http://www.tabsrus.nl - Your guitar resource.

Powered by Adremedy.com
Suggest correction
What's this?
You can suggest a correction to this tab. Community and Mods will review your correction and vote to approve or reject it.
comments
print report bad tab
2 comments total.
0 reply
|)EMENTED 113 wrote on January 25 2008, 11:46 am

looks good, but it wld have been nice to have the rhythm of the chords w/ it as well

0 reply
mamason282 64 wrote on February 24 2010, 03:40 pm

i like that the fills are noted(easy to figure out) nice to see good tab.

guest
You may want to rate the tab now too:
select rating
Please do not post tabs as comments. Select "correction" instead!