Oops, an error
Loading. Please wait.

The Broken tab

190 views 6 this week
no commentswrite comment
1 2 3 4 5
3 more votes to show rating
add to favorites
×
Save as Personal and add changes to this tab that will be seen only by you. Learn more ›
×
You can save this tab as Personal to edit and correct it or add notes. All changes will be seen only by you. Learn more »
launch autoscroll
font size
0
reset
how to read this tab
guitar tuner
edit
Autoscroll
slow
fast
+/-
esc
set tempo
stop
Author
Difficulty
About this tab version
The first version of this song. Contains both lead guitar and rhythm guitar parts. Was this info helpful? Yes No
[Intro]
LEAD GUITAR
(This is the call to the broken, the broken)
e|-----------------------------------------------------------------------------|
B|--------------------------8------------------------6-5-----------------------|
G|-----------5------5----------7-----5--------5-------------7------------------|
D|--------7-----7--------7----------------7-------7----------------------------|
A|-----------------------------------------------------------------------------|
E|-----------------------------------------------------------------------------|

e|---------------------------------------------------------------------|
B|-------------------------8---------------------------6-5-------------|
G|-------5-------5--------------7-----5--------5-------------7------5--|RHYTM GUITAR JOINS AT LAST NOTE
D|-----------7--------7--------------------7-------7-------------------|
A|---------------------------------------------------------------------|
E|---------------------------------------------------------------------|

[Verse 1]
RHYTHM GUITAR
Take it from me, they don't hear if you're lonely. As you can see they don't care if you are scared.
e|----------------------------------------|
B|----------------------------------------|
G|----------------------------------------|
D|----5-7-7-----7-5-5-----5-3-3----3-3-3--| 2X
A|----5-7-7-----7-5-5-----5-3-3----3-3-3--|
E|----3-5-5-----5-3-3-----3-1-1----1-1-1--|

Your heart is the only friend you have in this whole world. Don't start think you can do this yourself.
e|----------------------------------------|
B|----------------------------------------|
G|----------------------------------------|
D|----5-7-7-----7-5-5-----5-3-3----3-3-3--| 2X
A|----5-7-7-----7-5-5-----5-3-3----3-3-3--|
E|----3-5-5-----5-3-3-----3-1-1----1-1-1--|

[Pre-Chorus 1]
This is the call out.
e|-----------------------------------------------------------------------------|
B|-----------------------------------------------------------------------------|
G|-----------------------------------------------------------------------------|
D|----5-7-7--------------------------------------------------------------------|
A|----5-7-7--------------------------------------------------------------------|
E|----3-5-5--------------------------------------------------------------------|

[Chorus 1]
RHYTHM
This is the call to the broken (Stand up!). To all the ones who've been thrown away.
e|-------------------------------------------------------------------------------------|
B|-------------------------------------------------------------------------------------|
G|-------------------------------------------------------------------------------------|
D|----7-5-5-----5-3-3----3-3-3------5-7-7----------------------------------------------|
A|----7-5-5-----5-3-3----3-3-3------5-7-7----------------------------------------------|
E|----5-3-3-----3-1-1----1-1-1------3-5-5----------------------------------------------|

This is the call to the broken (Stand up!). Stand up and take back you world today.
e|-----------------------------------------|
B|-----------------------------------------|
G|-----------------------------------------|
D|----7-5-5-----5-3-3----3-3-3------5-7-7--|
A|----7-5-5-----5-3-3----3-3-3------5-7-7--|
E|----5-3-3-----3-1-1----1-1-1------3-5-5--|

RHYTHM GUITAR CONTINUES
e|-----------------------------------------|
B|-----------------------------------------|
G|-----------------------------------------|
D|----7-5-5-----5-3-3----3-3-3------5-7-7--|
A|----7-5-5-----5-3-3----3-3-3------5-7-7--|
E|----5-3-3-----3-1-1----1-1-1------3-5-5--|

LEAD GUITAR JOINS IN
(Stand up!)
e|-----------------------------------------------------------------------------|
B|--------------------------8------------------------6-5-----------------------|
G|-----------5------5----------7-----5--------5-------------7------------------|
D|--------7-----7--------7----------------7-------7----------------------------|
A|-----------------------------------------------------------------------------|
E|-----------------------------------------------------------------------------|

e|-----------------------------------------------------------------------------|
B|-------------------------8---------------------------6-5---------------------|
G|-------5-------5--------------7-----5--------5-------------7------5----------|
D|-----------7--------7--------------------7-------7---------------------------|
A|-----------------------------------------------------------------------------|
E|-----------------------------------------------------------------------------|

[Verse 2]
RHYTHM GUITAR
I know what you're thinking. You say, you're tired of keeping score.
e|----------------------------------------|
B|----------------------------------------|
G|----------------------------------------|
D|----5-7-7-----7-5-5-----5-3-3----3-3-3--| 2X
A|----5-7-7-----7-5-5-----5-3-3----3-3-3--|
E|----3-5-5-----5-3-3-----3-1-1----1-1-1--|
Trust me, you're not the only one going through this. You see, I've been through this before.

e|----------------------------------------|
B|----------------------------------------|
G|----------------------------------------|
D|----5-7-7-----7-5-5-----5-3-3----3-3-3--| 2X
A|----5-7-7-----7-5-5-----5-3-3----3-3-3--|
E|----3-5-5-----5-3-3-----3-1-1----1-1-1--|

[Pre-Chorus 2]
This is the call out
e|-----------------------------------------------------------------------------|
B|-----------------------------------------------------------------------------|
G|-----------------------------------------------------------------------------|
D|----5-7-7--------------------------------------------------------------------|
A|----5-7-7--------------------------------------------------------------------|
E|----3-5-5--------------------------------------------------------------------|

[Chorus 2]
RHYTHM
This is the call to the broken (Stand up!). To all the ones who've been thrown away.
e|-------------------------------------------------------------------------------------|
B|-------------------------------------------------------------------------------------|
G|-------------------------------------------------------------------------------------|
D|----7-5-5-----5-3-3----3-3-3------5-7-7----------------------------------------------|
A|----7-5-5-----5-3-3----3-3-3------5-7-7----------------------------------------------|
E|----5-3-3-----3-1-1----1-1-1------3-5-5----------------------------------------------|

This is the call to the broken (Stand up!). Stand up and take back you world today.
e|-----------------------------------------|
B|-----------------------------------------|
G|-----------------------------------------|
D|----7-5-5-----5-3-3----3-3-3------5-7-7--|
A|----7-5-5-----5-3-3----3-3-3------5-7-7--|
E|----5-3-3-----3-1-1----1-1-1------3-5-5--|

[Chorus 3]
RHYTHM GUITAR CONTINUES
e|-----------------------------------------|
B|-----------------------------------------|
G|-----------------------------------------|
D|----7-5-5-----5-3-3----3-3-3------5-7-7--|
A|----7-5-5-----5-3-3----3-3-3------5-7-7--|
E|----5-3-3-----3-1-1----1-1-1------3-5-5--|

LEAD GUITAR JOINS IN WITH RHYTHM
This is the call to the broken (Stand up!). We're are gonna do this our own way.
This is the call to the broken (Stand up!). Stand up and take back you world today.
e|-----------------------------------------------------------------------------|
B|--------------------------8------------------------6-5-----------------------|
G|-----------5------5----------7-----5--------5-------------7------------------|
D|--------7-----7--------7----------------7-------7----------------------------|
A|-----------------------------------------------------------------------------|
E|-----------------------------------------------------------------------------|

e|------------------------------------------------------------------------------------|
B|-------------------------8---------------------------6-5----------------------------|
G|-------5-------5--------------7-----5--------5-------------7------5-----------------|
D|-----------7--------7--------------------7-------7----------------------------------|
A|---------------------------------------------------------------------------|  ----| 2X
E|------------------------------------------------------------------------------------|

[Bridge]
RHYTHM GUITAR RESTS FOR TWO BARS WHILE LEAD GUITAR CONTINUES
This is the call to the broken (Stand up!). Stand up and take back you world today.
e|-----------------------------------------------------------------------------|
B|--------------------------8------------------------6-5-----------------------|
G|-----------5------5----------7-----5--------5-------------7------------------|
D|--------7-----7--------7----------------7-------7----------------------------|
A|-----------------------------------------------------------------------------|
E|-----------------------------------------------------------------------------|

e|-----------------------------------------------------------------------------|
B|-------------------------8---------------------------6-5---------------------|
G|-------5-------5--------------7-----5--------5-------------7------5----------|
D|-----------7--------7--------------------7-------7---------------------------|
A|-----------------------------------------------------------------------------|  
E|-----------------------------------------------------------------------------|

^LEAD GUITAR KEEPS PLAYING THIS PART TILL THE END
RHYTHM GUITAR JOINS IN
(PALM MUTED)
e|--------------------------------------------------------------------------------------|
B|--------------------------------------------------------------------------------------|
G|--------------------------------------------------------------------------------------|
D|-------3-3-3-3-3-3-3-3-/-5-5-5-5-5-5-5-5-/-7-7-7-7-7-7-7-7-/-10-10-10-10-10-10-10-10--|
A|-------3-3-3-3-3-3-3-3-/-5-5-5-5-5-5-5-5-/-7-7-7-7-7-7-7-7-/-10-10-10-10-10-10-10-10--|
E|-13/---1-1-1-1-1-1-1-1-/-3-3-3-3-3-3-3-3-/-5-5-5-5-5-5-5-5-/-8--8--8--8--8--8--8--8---|

e|------------------------------------------------------|
B|------------------------------------------------------|
G|------------------------------------------------------|
D|----3-3-3-3-3-3-3-3/5-5-5-5-5-5-5-5/7-7-7-7-7-7-7/10--|
A|----3-3-3-3-3-3-3-3/5-5-5-5-5-5-5-5/7-7-7-7-7-7-7/10--|
E|----1-1-1-1-1-1-1-1/3-3-3-3-3-3-3-3/5-5-5-5-5-5-5/8---|

[Chorus 4/Outro]
RHYTHM
This is the call to the broken (Stand up!). To all the ones who've been thrown away.
e|-------------------------------------------------------------------------------------|
B|-------------------------------------------------------------------------------------|
G|-------------------------------------------------------------------------------------|
D|----7-5-5-----5-3-3----3-3-3------5-7-7----------------------------------------------|
A|----7-5-5-----5-3-3----3-3-3------5-7-7----------------------------------------------|
E|----5-3-3-----3-1-1----1-1-1------3-5-5----------------------------------------------|

This is the call to the broken (Stand up!). Stand up and take back you world today.
e|-----------------------------------------|
B|-----------------------------------------|
G|-----------------------------------------|
D|----7-5-5-----5-3-3----3-3-3------5-7-7--|
A|----7-5-5-----5-3-3----3-3-3------5-7-7--|
E|----5-3-3-----3-1-1----1-1-1------3-5-5--|

************************************

| /  Slide 
    

************************************

            
            
Suggest correction
Creating personal tab
Creating personal tab
You can edit any tab online and save it as your Personal.

You can edit, replace or remove any tab part or add personal notes – all changes will be seen only by you.

Personal tabs can be accessed anytime from any device, even offline.
Learn more »
Give kudos to tab author, rate the tab!
1 2 3 4 5
comments
print report bad tab
guest
You may want to rate the tab now too:
select rating
Wanna post a correction for this tab? Suggest correction