Oops, an error
Loading. Please wait.

The Road Im On Tab

version 4
version 4

Whole song

Interactive

612 views 1 this week
no commentswrite comment
1 2 3 4 5
1 last vote to show rating
add to favorites
×
Save as Personal and add changes to this tab that will be seen only by you. Learn more ›
×
You can save this tab as Personal to edit and correct it or add notes. All changes will be seen only by you. Learn more »
save as personal
new!
launch autoscroll
font size
0
reset
how to read this tab
guitar tuner
Autoscroll
slow
fast
+/-
esc
set tempo
stop
Author
Capo
2nd fret
This is a revised version to the tab i previously made in which:

I tabbed out the intro to this song because it sounded cool  and created the rest of
this song on my own.  Please view this and try to play it and email me with any
comments or suggestions you might have.

email: fredmonschris@adelphia.net.


Name: Still Under Construction (revised version)
Artist: Chris Fredmonski         |   Key               |
Album: Not Quite There Yet       |    p  = pull off    | Guitar 1: Electric (Clean)
                                 |    ~~ = let ring    | Guitar 2: Acoustic (Capo on 2nd fret)
Tuning: Standard (EADGBE)        |    x  = mute chord  |
Time: 4/4                        |    %  = repeat      |
                                 |    /\ = up          |
                                           |    \/ = down        |


Intro

Guitar 1 (Strum final Am: \/ \/ \//\\//\ \/ \/)
E|---------------------------|---------0~~------|--------------------------|0-------|
B|--------------------2p0----|---------1~~------|-------------------2p0----|1-------|
G|-------------------------0-|------2--0~~------|------------------------0-|2------o|
D|--------2--------0---------|---2-----2~~------|-------2--------0---------|2------o|
A|-----2--------2------------|0--------3~~—3p2p0|----2--------2------------|0-------|
E|--0--------3---------------|------------------|-0--------3---------------|--------|
    Em       G                Am       C          Em       G                Am

Guitar 2 (Played same time as Guitar 1. Start playing on second time through)
E|--0~~------3~~-------------|0~~------0~~------|-0~~------3~~-------------|0~~-----|
B|--0~~------2~~-------------|1~~------1~~------|-0~~------2~~-------------|1~~-----|
G|--0~~------0~~-------------|2~~------0~~------|-0~~------0~~-------------|2~~-----|
D|--2~~------0~~-------------|2~~------2~~------|-2~~------0~~-------------|2~~-----|
A|--2~~------2~~-------------|0~~------3~~------|-2~~------2~~-------------|0~~-----|
E|--0~~------3~~-------------|------------------|-0~~------3~~-------------|--------|
    Em       G                Am       C         Em        G                Am


Verse

Guitar 1 (Played same time as Guitar 2. Repeat 6 times. Hold final Am for 4 beats.)
E|---------------------------|---------0~~------|--------------------------|0~~------|
B|--------------------2p0----|---------1~~------|-------------------2p0----|1~~------|
G|-------------------------0-|------2--0~~------|------------------------0—|2~~-----o|
D|--------2--------0---------|---2-----2~~------|-------2--------0---------|2~~-----o|
A|-----2--------2------------|0--------3~~—3p2p0|----2--------2------------|0~~------|
E|--0--------3---------------|------------------|-0--------3---------------|---------|
    Em       G                Am       C          Em       G                Am

Guitar 2 (Played same time as guitar 1. Repeat 3 times. Strum each chord with a
hard down stroke and follow each 00000 with an upstroke.  Play last chord in
each measure as
     you would each 00000.)

E|--0--0--0--0--0--0--0--0|--0--0--0--0--0--0--0--0|-0--0--0--0--0--0--0--0--|
B|--1--0--0--1--0--0--1--1|--1--0--0--1--0--0--1--1|-1--0--0--1--0--0--1--1--|
G|--0--0--0--0--0--0--0--0|--2--0--0--2--0--0--2--2|-2--0--0--2--0--0--2--2--|
D|--2--0--0--2--0--0--2--2|--2--0--0--2--0--0--2--2|-3--0--0--3--0--0--3--3--|
A|--3--0--0--3--0--0--3--3|--0--0--0--0-—0--0--0--0|-0--0--0--0--0--0--0--0--|
E|------------------------|------------------------|-------------------------|
    C                        Am                      F

E|--0--0--0--0--0--0--0--0|------------------------|-------------------------|
B|--1--0--0--1--0--0--1--1|------------------------|-------------------------|
G|--2--0--0--2--0--0--2--2|------------------------|-------------------------|
D|--2--0--0--2--0--0--2--2|--2--0--0--2--0--0--2--2|-0--0—-0--0--0--0--0--0--|
A|--0--0--0--0--0--0--0--0|--2--0--0--2--0--0--2--2|-2--0--0--2--0--0--2--2--|
E|------------------------|--0--0--0--0--0--0--0--0|-3--0--0--3--0--0--3--3--|
    Am                       Em                      G


Chorus

Guitar 1 (Played same time as Guitar 2. Strum each chord with two quick down
strokes and hold second down stroke for remainder of measure.)
E|---------|---------|---------|---------|---------|---------|---------|---------|
B|---------|---------|---------|---------|---------|---------|---------|---------|
G|--3-3~~--|--4-4~~--|--5-5~~--|--4-4~~--|--3-3~~--|--4-4~~--|--5-5~~--|--4-4~~--|
D|--4—4~~--|--5-5~~--|--7-7~~--|--5-5~~--|--4—4~~--|--5-5~~--|--7-7~~--|--5-5~~--|
A|--4-4~~--|--5-5~~--|--7-7~~--|--5-5~~--|--4-4~~--|--5-5~~--|--7-7~~--|--5-5~~--|
E|--2-2~~--|--3-3~~--|--5-5~~--|--3-3~~--|--2-2~~--|--3-3~~--|--5-5~~--|--3-3~~--|
    F#        G         Am        G         F#        G         Am        G

Guitar 2 (Played same time as Guitar 1. Use same strum pattern as in the verse,
except of playing the last chord in each measure as a 00000, play it with two
down strokes. stands for the same chord directly in front of it, except muted.)
E|--------------------------|--------------------------|--------------------------|
B|--------------------------|--------------------------|--------------------------|
G|o-3--x--x--3--x--x--3--3-o|o-4--x--x--4--x--x--4--4-o|o-5--x--x--5--x--x--5--5-o|
D|o-4--x--x--4--x--x--4--4-o|o-5--x--x--5--x--x--5--5-o|o-7--x--x--7--x--x--7--7-o|
A|--4--x--x--4--x--x--4--4--|--5--x--x--5--x--x--5--5--|--7--x--x--7--x--x--7--7--|
E|--2--x--x--2--x--x--2--2--|--3--x--x--3--x--x--3--3--|--5--x--x--5--x--x--5--5--|
    F#                         G                          Am

E|----------------------------|
B|----------------------------|
G|o--4--x--x--4--x--x--4--4--o|
D|o--5--x--x--5--x--x--5--5--o|
A|---5--x--x--5--x--x--5--5---|
E|---3--x--x--3--x--x--3--3---|
     G

Bridge

Guitar 1
E|--------0----|------0----|------0----|------0----|-----------|-----------|
B|--------1----|------1----|------1----|------1----|------0----|------2----|
G|--------2--2-|------0--0-|------2--2-|------2--2-|------0----|------0----|
D|-----2-------|---2-------|---3-------|---2-------|------2--0-|------0--0-|
A|--0----------|3----------|0----------|0----------|---2-------|---2-------|
E|-------------|-----------|-----------|-----------|0----------|3----------|
    Am          C           F           Am          Em          G

E|-------------|-----------|-----------|-----------|0~~--|
B|--------2----|------3----|------5----|------3----|1~~--|
G|--------3----|------4----|------5----|------4----|0~~--|
D|--------4--4-|------5--5-|------7--7-|------5--5-|2~~--|
A|-----4-------|---5-------|---7-------|---5-------|3~~--|
E|--2----------|3----------|5----------|3----------|-----|
    F#          G           Am          G           C

Interlude

Guitar 1 (Played same time as Guitar 2.)
E|--------3----|------3----|------3----|------3----|------3----|------3----|
B|--------1----|------1----|------1----|------1----|------0----|------2----|
G|--------0--0-|------2--2-|------2--2-|------2--2-|------0----|------0----|
D|-----2-------|---2-------|---3-------|---2-------|------2--0-|------0--0-|
A|--3----------|0----------|0----------|0----------|---2-------|---2-------|
E|-------------|-----------|-----------|-----------|0----------|3----------|
    C           Am          F           Am          Em          G

Guitar 2 (Played same time as Guitar 1. Down stroke each chord, except, on the
fourth down stroke follow the down stroke with a quick upstroke.  Pick up strum
pattern for the verse after playing the C chord at end of interlude.)
E|--3--3--3--33-|3--3--3--33-|3--3--3--33-|3--3--3--33-|3--3--3--33-|3--3--3--33-|0--|
B|--1--1--1--11-|1--1--1--11-|1--1--1--11-|1--1--1--11-|0--0--0--00-|2--2--2--22-|1--|
G|--0--0--0--00-|2--2--2--22-|2--2--2--22-|2--2--2--22-|0--0--0--00-|0--0--0--00-|0--|
D|--2--2--2--22-|2--2--2--22-|3--3--3--33-|2--2--2--22-|2--2--2--22-|0--0--0--00-|2--|
A|--3--3--3--33-|0--0--0--00-|0--0--0--00-|0--0--0--00-|2--2--2--22-|2--2--2--22-|3--|
E|--------------|------------|------------|------------|0--0--0--00-|3--3--3--33-|---|
    C            Am           F            Am           Em           G            C


Pre-Outro

Guitar 1(Played same time as Guitar 2. Pick up after Guitar 2 plays two measures.
Play twice.)
E|---------------------------|---------0~~------|--------------------------|0~~------|
B|--------------------2p0----|---------1~~------|-------------------2p0----|1~~------|
G|-------------------------0-|------2--0~~------|------------------------0—|2~~-----o|
D|--------2--------0---------|---2-----2~~------|-------2--------0---------|2~~-----o|
A|-----2--------2------------|0--------3~~—3p2p0|----2--------2------------|0~~------|
E|--0--------3---------------|------------------|-0--------3---------------|---------|
    Em       G                Am       C          Em       G                Am

Guitar 2 (Played same time as Guitar 1. Strum F chords the same way as in the
Chorus. Strum the last two F chord marked L the same way as the last chord in
each measure in the Verse. Play rest of Pre-Outro the same way as the Verse.)
E|-------------------------|--------------------------|---------------------------|
B|-------------------------|--------------------------|---------------------------|
G|--2--x--x--2--x--x--2--2-|x--2--x--x--2--x--x--2--2-|x--2--x--2--x--2--x--2--x--|
D|--3--x--x--3--x--x--3--3-|x--3--x--x--3--x--x--3--3-|x--3--x--3--x--3--x--3--x--|
A|--3--x--x--3--x--x--3--3-|x--3--x--x--3--x--x--3--3-|x--3--x--3--x--3--x--3--x--|
E|--1--x--x--1--x--x--1--1-|x--1--x--x--1--x--x--1--1-|x--1--x--1--x--1--x--1--x--|
    F

E|-------------------------|0--0--0--0--0--0--0-|0--0--0--0--0--0--0-|0--0--0--0--0--0--0--|
B|--------------------L--L-|1--0--0--1--0--0--1-|1--0--0--1--0--0--1-|1--0--0--1--0--0--1--|
G|--2--2--2--2--2--2--2--2-|0--0--0--0--0--0--0-|2--0--0--2--0--0--2-|2--0--0--2--0--0--2--|
D|--3--3--3--3--3--3--3--3-|2--0--0--2--0--0--2-|2--0--0--2--0--0--2-|3--0--0--3--0--0--3--|
A|--3--3--3--3--3--3--3--3-|3--0--0--3--0--0--3-|0--0--0--0--0--0--0-|0--0--0--0--0--0--0--|
E|--1--1--1--1--1--1--1--1-|--------------------|--------------------|---------------------|

E|--0--0--0--0--0--0--0-|--------------------|---------------------|
B|--1--0--0--1--0--0--1-|--------------------|---------------------|
G|--2--0--0--2--0--0--2-|--------------------|---------------------|
D|--2--0--0--2--0--0--2-|2--0--0--2--0--0--2-|0--0--0--0--0--0--0--|
A|--0--0--0--0--0--0--0-|2--0--0--2--0--0--2-|2--0--0--2--0--0--2--|
E|----------------------|0--0--0--0--0--0--0-|3--0--0--3--0--0--3--|


Outro

Guitar 1
E|---------------------------|---------0~~------|--------------------------|0~~------|
B|--------------------2p0----|---------1~~------|-------------------2p0----|1~~------|
G|-------------------------0-|------2--0~~------|------------------------0—|2~~------|
D|--------2--------0---------|---2-----2~~------|-------2--------0---------|2~~------|
A|-----2--------2------------|0--------3~~—3p2p0|----2--------2------------|0~~------|
E|--0--------3---------------|------------------|-0--------3---------------|---------|
    Em       G                Am       C          Em       G                Am


Song Progression
Intro
Verse
Chorus
Verse
Chorus
Bridge
Interlude
Pre-Outro
Outro
Suggest correction
Give kudos to tab author, rate the tab!
1 2 3 4 5
comments
print report bad tab
guest
You may want to rate the tab now too:
select rating
Wanna post a correction for this tab? Suggest correction